  0
SECTION
  2
HEADER
  9
$ACADVER
  1
AC1027
  9
$ACADMAINTVER
 70
    55
  9
$DWGCODEPAGE
  3
ANSI_1252
  9
$LASTSAVEDBY
  1
danica
  9
$REQUIREDVERSIONS
160
                 0
  9
$INSBASE
 10
0.0
 20
0.0
 30
0.0
  9
$EXTMIN
 10
-6.807103605395727
 20
-6.1126987500459
 30
-0.0015258207003583
  9
$EXTMAX
 10
1.805310235543327
 20
2.761286251784358
 30
0.0000000349246037
  9
$LIMMIN
 10
0.0
 20
0.0
  9
$LIMMAX
 10
12.0
 20
9.0
  9
$ORTHOMODE
 70
     0
  9
$REGENMODE
 70
     1
  9
$FILLMODE
 70
     1
  9
$QTEXTMODE
 70
     0
  9
$MIRRTEXT
 70
     0
  9
$LTSCALE
 40
1.0
  9
$ATTMODE
 70
     1
  9
$TEXTSIZE
 40
0.2
  9
$TRACEWID
 40
0.05
  9
$TEXTSTYLE
  7
Standard
  9
$CLAYER
  8
0
  9
$CELTYPE
  6
ByLayer
  9
$CECOLOR
 62
   256
  9
$CELTSCALE
 40
1.0
  9
$DISPSILH
 70
     0
  9
$DIMSCALE
 40
1.0
  9
$DIMASZ
 40
0.18
  9
$DIMEXO
 40
0.0625
  9
$DIMDLI
 40
0.38
  9
$DIMRND
 40
0.0
  9
$DIMDLE
 40
0.0
  9
$DIMEXE
 40
0.18
  9
$DIMTP
 40
0.0
  9
$DIMTM
 40
0.0
  9
$DIMTXT
 40
0.18
  9
$DIMCEN
 40
0.09
  9
$DIMTSZ
 40
0.0
  9
$DIMTOL
 70
     0
  9
$DIMLIM
 70
     0
  9
$DIMTIH
 70
     1
  9
$DIMTOH
 70
     1
  9
$DIMSE1
 70
     0
  9
$DIMSE2
 70
     0
  9
$DIMTAD
 70
     0
  9
$DIMZIN
 70
     0
  9
$DIMBLK
  1

  9
$DIMASO
 70
     1
  9
$DIMSHO
 70
     1
  9
$DIMPOST
  1

  9
$DIMAPOST
  1

  9
$DIMALT
 70
     0
  9
$DIMALTD
 70
     2
  9
$DIMALTF
 40
25.4
  9
$DIMLFAC
 40
1.0
  9
$DIMTOFL
 70
     0
  9
$DIMTVP
 40
0.0
  9
$DIMTIX
 70
     0
  9
$DIMSOXD
 70
     0
  9
$DIMSAH
 70
     0
  9
$DIMBLK1
  1

  9
$DIMBLK2
  1

  9
$DIMSTYLE
  2
Standard
  9
$DIMCLRD
 70
     0
  9
$DIMCLRE
 70
     0
  9
$DIMCLRT
 70
     0
  9
$DIMTFAC
 40
1.0
  9
$DIMGAP
 40
0.09
  9
$DIMJUST
 70
     0
  9
$DIMSD1
 70
     0
  9
$DIMSD2
 70
     0
  9
$DIMTOLJ
 70
     1
  9
$DIMTZIN
 70
     0
  9
$DIMALTZ
 70
     0
  9
$DIMALTTZ
 70
     0
  9
$DIMUPT
 70
     0
  9
$DIMDEC
 70
     4
  9
$DIMTDEC
 70
     4
  9
$DIMALTU
 70
     4
  9
$DIMALTTD
 70
     2
  9
$DIMTXSTY
  7
Standard
  9
$DIMAUNIT
 70
     0
  9
$DIMADEC
 70
     0
  9
$DIMALTRND
 40
0.0
  9
$DIMAZIN
 70
     0
  9
$DIMDSEP
 70
    46
  9
$DIMATFIT
 70
     3
  9
$DIMFRAC
 70
     0
  9
$DIMLDRBLK
  1

  9
$DIMLUNIT
 70
     4
  9
$DIMLWD
 70
    -2
  9
$DIMLWE
 70
    -2
  9
$DIMTMOVE
 70
     0
  9
$DIMFXL
 40
1.0
  9
$DIMFXLON
 70
     0
  9
$DIMJOGANG
 40
0.7853981633974483
  9
$DIMTFILL
 70
     0
  9
$DIMTFILLCLR
 70
     0
  9
$DIMARCSYM
 70
     0
  9
$DIMLTYPE
  6

  9
$DIMLTEX1
  6

  9
$DIMLTEX2
  6

  9
$DIMTXTDIRECTION
 70
     0
  9
$LUNITS
 70
     4
  9
$LUPREC
 70
     4
  9
$SKETCHINC
 40
0.1
  9
$FILLETRAD
 40
0.0
  9
$AUNITS
 70
     0
  9
$AUPREC
 70
     0
  9
$MENU
  1
.
  9
$ELEVATION
 40
0.0
  9
$PELEVATION
 40
0.0
  9
$THICKNESS
 40
0.0
  9
$LIMCHECK
 70
     0
  9
$CHAMFERA
 40
0.0
  9
$CHAMFERB
 40
0.0
  9
$CHAMFERC
 40
0.0
  9
$CHAMFERD
 40
0.0
  9
$SKPOLY
 70
     0
  9
$TDCREATE
 40
2458173.683525845
  9
$TDUCREATE
 40
2458173.891859178
  9
$TDUPDATE
 40
2458173.688709225
  9
$TDUUPDATE
 40
2458173.897042558
  9
$TDINDWG
 40
0.0049838657
  9
$TDUSRTIMER
 40
0.0049838657
  9
$USRTIMER
 70
     1
  9
$ANGBASE
 50
0.0
  9
$ANGDIR
 70
     0
  9
$PDMODE
 70
     0
  9
$PDSIZE
 40
0.0
  9
$PLINEWID
 40
0.0
  9
$SPLFRAME
 70
     0
  9
$SPLINETYPE
 70
     6
  9
$SPLINESEGS
 70
     8
  9
$HANDSEED
  5
178
  9
$SURFTAB1
 70
     6
  9
$SURFTAB2
 70
     6
  9
$SURFTYPE
 70
     6
  9
$SURFU
 70
     6
  9
$SURFV
 70
     6
  9
$UCSBASE
  2

  9
$UCSNAME
  2

  9
$UCSORG
 10
0.0
 20
0.0
 30
0.0
  9
$UCSXDIR
 10
1.0
 20
0.0
 30
0.0
  9
$UCSYDIR
 10
0.0
 20
1.0
 30
0.0
  9
$UCSORTHOREF
  2

  9
$UCSORTHOVIEW
 70
     0
  9
$UCSORGTOP
 10
0.0
 20
0.0
 30
0.0
  9
$UCSORGBOTTOM
 10
0.0
 20
0.0
 30
0.0
  9
$UCSORGLEFT
 10
0.0
 20
0.0
 30
0.0
  9
$UCSORGRIGHT
 10
0.0
 20
0.0
 30
0.0
  9
$UCSORGFRONT
 10
0.0
 20
0.0
 30
0.0
  9
$UCSORGBACK
 10
0.0
 20
0.0
 30
0.0
  9
$PUCSBASE
  2

  9
$PUCSNAME
  2

  9
$PUCSORG
 10
0.0
 20
0.0
 30
0.0
  9
$PUCSXDIR
 10
1.0
 20
0.0
 30
0.0
  9
$PUCSYDIR
 10
0.0
 20
1.0
 30
0.0
  9
$PUCSORTHOREF
  2

  9
$PUCSORTHOVIEW
 70
     0
  9
$PUCSORGTOP
 10
0.0
 20
0.0
 30
0.0
  9
$PUCSORGBOTTOM
 10
0.0
 20
0.0
 30
0.0
  9
$PUCSORGLEFT
 10
0.0
 20
0.0
 30
0.0
  9
$PUCSORGRIGHT
 10
0.0
 20
0.0
 30
0.0
  9
$PUCSORGFRONT
 10
0.0
 20
0.0
 30
0.0
  9
$PUCSORGBACK
 10
0.0
 20
0.0
 30
0.0
  9
$USERI1
 70
     0
  9
$USERI2
 70
     0
  9
$USERI3
 70
     0
  9
$USERI4
 70
     0
  9
$USERI5
 70
     0
  9
$USERR1
 40
0.0
  9
$USERR2
 40
0.0
  9
$USERR3
 40
0.0
  9
$USERR4
 40
0.0
  9
$USERR5
 40
0.0
  9
$WORLDVIEW
 70
     1
  9
$SHADEDGE
 70
     3
  9
$SHADEDIF
 70
    70
  9
$TILEMODE
 70
     1
  9
$MAXACTVP
 70
    64
  9
$PINSBASE
 10
0.0
 20
0.0
 30
0.0
  9
$PLIMCHECK
 70
     0
  9
$PEXTMIN
 10
1.000000000000000E+20
 20
1.000000000000000E+20
 30
1.000000000000000E+20
  9
$PEXTMAX
 10
-1.000000000000000E+20
 20
-1.000000000000000E+20
 30
-1.000000000000000E+20
  9
$PLIMMIN
 10
0.0
 20
0.0
  9
$PLIMMAX
 10
12.0
 20
9.0
  9
$UNITMODE
 70
     0
  9
$VISRETAIN
 70
     1
  9
$PLINEGEN
 70
     0
  9
$PSLTSCALE
 70
     1
  9
$TREEDEPTH
 70
  3020
  9
$CMLSTYLE
  2
Standard
  9
$CMLJUST
 70
     0
  9
$CMLSCALE
 40
1.0
  9
$PROXYGRAPHICS
 70
     1
  9
$MEASUREMENT
 70
     0
  9
$CELWEIGHT
370
    -1
  9
$ENDCAPS
280
     0
  9
$JOINSTYLE
280
     0
  9
$LWDISPLAY
290
     0
  9
$INSUNITS
 70
     1
  9
$HYPERLINKBASE
  1

  9
$STYLESHEET
  1

  9
$XEDIT
290
     1
  9
$CEPSNTYPE
380
     0
  9
$PSTYLEMODE
290
     1
  9
$FINGERPRINTGUID
  2
{B570E5C5-E659-4EAF-AD5E-75AAF610499B}
  9
$VERSIONGUID
  2
{D8C1E05F-8096-4A8D-818E-D969D8F76E7D}
  9
$EXTNAMES
290
     1
  9
$PSVPSCALE
 40
0.0
  9
$OLESTARTUP
290
     0
  9
$SORTENTS
280
   127
  9
$INDEXCTL
280
     0
  9
$HIDETEXT
280
     1
  9
$XCLIPFRAME
280
     2
  9
$HALOGAP
280
     0
  9
$OBSCOLOR
 70
   257
  9
$OBSLTYPE
280
     0
  9
$INTERSECTIONDISPLAY
280
     0
  9
$INTERSECTIONCOLOR
 70
   257
  9
$DIMASSOC
280
     2
  9
$PROJECTNAME
  1

  9
$CAMERADISPLAY
290
     0
  9
$LENSLENGTH
 40
50.0
  9
$CAMERAHEIGHT
 40
0.0
  9
$STEPSPERSEC
 40
2.0
  9
$STEPSIZE
 40
6.0
  9
$3DDWFPREC
 40
2.0
  9
$PSOLWIDTH
 40
0.25
  9
$PSOLHEIGHT
 40
4.0
  9
$LOFTANG1
 40
1.570796326794896
  9
$LOFTANG2
 40
1.570796326794896
  9
$LOFTMAG1
 40
0.0
  9
$LOFTMAG2
 40
0.0
  9
$LOFTPARAM
 70
     7
  9
$LOFTNORMALS
280
     1
  9
$LATITUDE
 40
0.0
  9
$LONGITUDE
 40
0.0
  9
$NORTHDIRECTION
 40
0.0
  9
$TIMEZONE
 70
     0
  9
$LIGHTGLYPHDISPLAY
280
     1
  9
$TILEMODELIGHTSYNCH
280
     1
  9
$CMATERIAL
347
11
  9
$SOLIDHIST
280
     0
  9
$SHOWHIST
280
     1
  9
$DWFFRAME
280
     2
  9
$DGNFRAME
280
     0
  9
$REALWORLDSCALE
290
     1
  9
$INTERFERECOLOR
 62
     1
  9
$INTERFEREOBJVS
345
33
  9
$INTERFEREVPVS
346
30
  9
$CSHADOW
280
     0
  9
$SHADOWPLANELOCATION
 40
0.0
  0
ENDSEC
  0
SECTION
  2
CLASSES
  0
CLASS
  1
ACDBDICTIONARYWDFLT
  2
AcDbDictionaryWithDefault
  3
ObjectDBX Classes
 90
        0
 91
        1
280
     0
281
     0
  0
CLASS
  1
MATERIAL
  2
AcDbMaterial
  3
ObjectDBX Classes
 90
     1153
 91
        3
280
     0
281
     0
  0
CLASS
  1
VISUALSTYLE
  2
AcDbVisualStyle
  3
ObjectDBX Classes
 90
     4095
 91
       24
280
     0
281
     0
  0
CLASS
  1
SCALE
  2
AcDbScale
  3
ObjectDBX Classes
 90
     1153
 91
       17
280
     0
281
     0
  0
CLASS
  1
TABLESTYLE
  2
AcDbTableStyle
  3
ObjectDBX Classes
 90
     4095
 91
        1
280
     0
281
     0
  0
CLASS
  1
MLEADERSTYLE
  2
AcDbMLeaderStyle
  3
ACDB_MLEADERSTYLE_CLASS
 90
     4095
 91
        1
280
     0
281
     0
  0
CLASS
  1
ACDBSECTIONVIEWSTYLE
  2
AcDbSectionViewStyle
  3
ObjectDBX Classes
 90
     1025
 91
        1
280
     0
281
     0
  0
CLASS
  1
ACDBDETAILVIEWSTYLE
  2
AcDbDetailViewStyle
  3
ObjectDBX Classes
 90
     1025
 91
        1
280
     0
281
     0
  0
CLASS
  1
RASTERVARIABLES
  2
AcDbRasterVariables
  3
ISM
 90
        0
 91
        1
280
     0
281
     0
  0
CLASS
  1
DICTIONARYVAR
  2
AcDbDictionaryVar
  3
ObjectDBX Classes
 90
        0
 91
        5
280
     0
281
     0
  0
CLASS
  1
SORTENTSTABLE
  2
AcDbSortentsTable
  3
ObjectDBX Classes
 90
        0
 91
        3
280
     0
281
     0
  0
CLASS
  1
CELLSTYLEMAP
  2
AcDbCellStyleMap
  3
ObjectDBX Classes
 90
     1152
 91
        1
280
     0
281
     0
  0
ENDSEC
  0
SECTION
  2
TABLES
  0
TABLE
  2
VPORT
  5
8
330
0
100
AcDbSymbolTable
 70
     1
  0
VPORT
  5
57
330
8
100
AcDbSymbolTableRecord
100
AcDbViewportTableRecord
  2
*Active
 70
     0
 10
0.0
 20
0.0
 11
1.0
 21
1.0
 12
-2.500896684926201
 22
-1.675706249130771
 13
0.0
 23
0.0
 14
1.0
 24
1.0
 15
0.0
 25
0.0
 16
0.0
 26
0.0
 36
1.0
 17
0.0
 27
0.0
 37
0.0
 40
8.945839131399734
 41
2.587837837837837
 42
50.0
 43
0.0
 44
0.0
 50
0.0
 51
0.0
 71
     0
 72
  1000
 73
     1
 74
     1
 75
     0
 76
     0
 77
     0
 78
     0
281
     0
 65
     1
110
0.0
120
0.0
130
0.0
111
1.0
121
0.0
131
0.0
112
0.0
122
1.0
132
0.0
 79
     0
146
0.0
348
2F
 60
     3
 61
     5
292
     1
282
     1
141
0.0
142
0.0
 63
   250
421
  3355443
1001
ACAD_NAV_VCDISPLAY
1070
     3
  0
ENDTAB
  0
TABLE
  2
LTYPE
  5
5
330
0
100
AcDbSymbolTable
 70
     2
  0
LTYPE
  5
5B
330
5
100
AcDbSymbolTableRecord
100
AcDbLinetypeTableRecord
  2
ByBlock
 70
     0
  3

 72
    65
 73
     0
 40
0.0
  0
LTYPE
  5
5C
330
5
100
AcDbSymbolTableRecord
100
AcDbLinetypeTableRecord
  2
ByLayer
 70
     0
  3

 72
    65
 73
     0
 40
0.0
  0
LTYPE
  5
5D
330
5
100
AcDbSymbolTableRecord
100
AcDbLinetypeTableRecord
  2
Continuous
 70
     0
  3
Solid line
 72
    65
 73
     0
 40
0.0
  0
ENDTAB
  0
TABLE
  2
LAYER
  5
2
102
{ACAD_XDICTIONARY
360
15C
102
}
330
0
100
AcDbSymbolTable
 70
     2
  0
LAYER
  5
54
330
2
100
AcDbSymbolTableRecord
100
AcDbLayerTableRecord
  2
0
 70
     0
 62
     7
  6
Continuous
370
    -3
390
F
347
21
348
0
  0
LAYER
  5
8B
330
2
100
AcDbSymbolTableRecord
100
AcDbLayerTableRecord
  2
T722.430
 70
     0
 62
     7
  6
Continuous
370
     9
390
F
347
21
348
0
  0
ENDTAB
  0
TABLE
  2
STYLE
  5
3
330
0
100
AcDbSymbolTable
 70
     2
  0
STYLE
  5
55
330
3
100
AcDbSymbolTableRecord
100
AcDbTextStyleTableRecord
  2
Standard
 70
     0
 40
0.0
 41
1.0
 50
0.0
 71
     0
 42
0.2
  3
txt
  4

  0
ENDTAB
  0
TABLE
  2
VIEW
  5
6
330
0
100
AcDbSymbolTable
 70
     1
  0
ENDTAB
  0
TABLE
  2
UCS
  5
7
330
0
100
AcDbSymbolTable
 70
     0
  0
ENDTAB
  0
TABLE
  2
APPID
  5
9
330
0
100
AcDbSymbolTable
 70
     6
  0
APPID
  5
56
330
9
100
AcDbSymbolTableRecord
100
AcDbRegAppTableRecord
  2
ACAD
 70
     0
  0
APPID
  5
5E
330
9
100
AcDbSymbolTableRecord
100
AcDbRegAppTableRecord
  2
AcadAnnotative
 70
     0
  0
APPID
  5
78
330
9
100
AcDbSymbolTableRecord
100
AcDbRegAppTableRecord
  2
REVIT
 70
     0
  0
APPID
  5
E7
330
9
100
AcDbSymbolTableRecord
100
AcDbRegAppTableRecord
  2
ACAD_EXEMPT_FROM_CAD_STANDARDS
 70
     0
  0
APPID
  5
E9
330
9
100
AcDbSymbolTableRecord
100
AcDbRegAppTableRecord
  2
AEC_XDATA_BOUND_SPACE
 70
     0
  0
APPID
  5
13F
330
9
100
AcDbSymbolTableRecord
100
AcDbRegAppTableRecord
  2
ACAD_NAV_VCDISPLAY
 70
     0
  0
ENDTAB
  0
TABLE
  2
DIMSTYLE
  5
A
330
0
100
AcDbSymbolTable
 70
     3
100
AcDbDimStyleTable
 71
     1
340
58
  0
DIMSTYLE
105
58
330
A
100
AcDbSymbolTableRecord
100
AcDbDimStyleTableRecord
  2
Standard
 70
     0
340
55
  0
ENDTAB
  0
TABLE
  2
BLOCK_RECORD
  5
1
330
0
100
AcDbSymbolTable
 70
     8
  0
BLOCK_RECORD
  5
70
102
{ACAD_XDICTIONARY
360
D6
102
}
330
1
100
AcDbSymbolTableRecord
100
AcDbBlockTableRecord
  2
*Model_Space
340
73
 70
     0
280
     1
281
     0
  0
BLOCK_RECORD
  5
6C
330
1
100
AcDbSymbolTableRecord
100
AcDbBlockTableRecord
  2
*Paper_Space
340
6F
 70
     0
280
     1
281
     0
  0
BLOCK_RECORD
  5
74
330
1
100
AcDbSymbolTableRecord
100
AcDbBlockTableRecord
  2
*Paper_Space0
340
77
 70
     0
280
     1
281
     0
  0
BLOCK_RECORD
  5
EF
330
1
100
AcDbSymbolTableRecord
100
AcDbBlockTableRecord
  2
AMSTD_Estate_T722.430_Plan View
340
0
310
2800000020000000200000000100080000000000000400000000000000000000000000000000000000000000000080000080000000808000800000008000800080800000C0C0C000C0DCC000F0CAA6000020400000206000002080000020A0000020C0000020E00000400000004020000040400000406000004080000040A0
310
000040C0000040E00000600000006020000060400000606000006080000060A0000060C0000060E00000800000008020000080400000806000008080000080A0000080C0000080E00000A0000000A0200000A0400000A0600000A0800000A0A00000A0C00000A0E00000C0000000C0200000C0400000C0600000C0800000C0
310
A00000C0C00000C0E00000E0000000E0200000E0400000E0600000E0800000E0A00000E0C00000E0E00040000000400020004000400040006000400080004000A0004000C0004000E00040200000402020004020400040206000402080004020A0004020C0004020E000404000004040200040404000404060004040800040
310
40A0004040C0004040E00040600000406020004060400040606000406080004060A0004060C0004060E00040800000408020004080400040806000408080004080A0004080C0004080E00040A0000040A0200040A0400040A0600040A0800040A0A00040A0C00040A0E00040C0000040C0200040C0400040C0600040C08000
310
40C0A00040C0C00040C0E00040E0000040E0200040E0400040E0600040E0800040E0A00040E0C00040E0E00080000000800020008000400080006000800080008000A0008000C0008000E00080200000802020008020400080206000802080008020A0008020C0008020E00080400000804020008040400080406000804080
310
008040A0008040C0008040E00080600000806020008060400080606000806080008060A0008060C0008060E00080800000808020008080400080806000808080008080A0008080C0008080E00080A0000080A0200080A0400080A0600080A0800080A0A00080A0C00080A0E00080C0000080C0200080C0400080C0600080C0
310
800080C0A00080C0C00080C0E00080E0000080E0200080E0400080E0600080E0800080E0A00080E0C00080E0E000C0000000C0002000C0004000C0006000C0008000C000A000C000C000C000E000C0200000C0202000C0204000C0206000C0208000C020A000C020C000C020E000C0400000C0402000C0404000C0406000C0
310
408000C040A000C040C000C040E000C0600000C0602000C0604000C0606000C0608000C060A000C060C000C060E000C0800000C0802000C0804000C0806000C0808000C080A000C080C000C080E000C0A00000C0A02000C0A04000C0A06000C0A08000C0A0A000C0A0C000C0A0E000C0C00000C0C02000C0C04000C0C06000
310
C0C08000C0C0A000F0FBFF00A4A0A000808080000000FF0000FF000000FFFF00FF000000FF00FF00FFFF0000FFFFFF00494949494949494949494949494949494949494949494949494949494949494949494949494949494949494949FDFDFDFDFDFD49494949494949494949494949494949494949494949494949FDFD49
310
494949FDFD494949494949494949494949494949494949494949494949FD494949494949FD494949494949494949494949494949494949494949494949FD494949494949FD494949494949494949494949494949494949494949494949FD494949494949FD49494949494949494949494949494949494949494949494949FD
310
49494949FD4949494949494949494949494949494949494949494949494949FD49494949FD4949494949494949494949494949494949494949494949494949FD49494949FD4949494949494949494949494949494949494949494949494949FD49494949FD494949494949494949494949494949494949494949494949FDFD
310
FDFDFDFDFDFDFDFD49494949494949494949494949494949494949494949FD4949494949494949FD49494949494949494949494949494949494949494949FD4949494949494949FD49494949494949494949494949494949494949494949FD4949494949494949FD494949494949494949494949494949494949494949FD49
310
494949494949494949FD4949494949494949494949494949494949494949FD49494949494949494949FD4949494949494949494949494949494949494949FD49494949494949494949FD4949494949494949494949494949494949494949FD49494949494949494949FD49494949494949494949494949494949494949FD49
310
4949494949494949494949FD494949494949494949494949494949494949FD494949494949494949494949FD494949494949494949494949494949494949FD494949494949494949494949FD4949494949494949494949494949494949FD4949494949494949494949494949FD49494949494949494949494949494949FD49
310
49494949494949494949494949FD49494949494949494949494949494949FD4949494949494949494949494949FD494949494949494949494949494949FD49494949494949494949494949494949FD4949494949494949494949494949FD49494949494949494949494949494949FD49494949494949494949494949FD4949
310
49494949494949494949494949494949FD494949494949494949494949FDFDFDFDFDFDFDFDFDFDFDFDFDFDFDFDFDFDFDFD4949494949494949494949494949FDFDFDFDFDFDFDFDFDFDFDFDFDFDFDFD494949494949494949494949FDFDFDFD49494949494949494949494949494949FDFDFDFD494949494949494949FDFDFD
310
FDFDFDFDFDFDFDFDFDFDFDFDFDFDFDFDFDFDFD49494949494949494949494949494949494949494949494949494949494949494949494949
102
{BLKREFS
331
113
102
}
 70
     1
280
     1
281
     1
  0
BLOCK_RECORD
  5
114
330
1
100
AcDbSymbolTableRecord
100
AcDbBlockTableRecord
  2
AMSTD_Estate_T722.430_Side View
340
0
310
2800000020000000200000000100080000000000000400000000000000000000000000000000000000000000000080000080000000808000800000008000800080800000C0C0C000C0DCC000F0CAA6000020400000206000002080000020A0000020C0000020E00000400000004020000040400000406000004080000040A0
310
000040C0000040E00000600000006020000060400000606000006080000060A0000060C0000060E00000800000008020000080400000806000008080000080A0000080C0000080E00000A0000000A0200000A0400000A0600000A0800000A0A00000A0C00000A0E00000C0000000C0200000C0400000C0600000C0800000C0
310
A00000C0C00000C0E00000E0000000E0200000E0400000E0600000E0800000E0A00000E0C00000E0E00040000000400020004000400040006000400080004000A0004000C0004000E00040200000402020004020400040206000402080004020A0004020C0004020E000404000004040200040404000404060004040800040
310
40A0004040C0004040E00040600000406020004060400040606000406080004060A0004060C0004060E00040800000408020004080400040806000408080004080A0004080C0004080E00040A0000040A0200040A0400040A0600040A0800040A0A00040A0C00040A0E00040C0000040C0200040C0400040C0600040C08000
310
40C0A00040C0C00040C0E00040E0000040E0200040E0400040E0600040E0800040E0A00040E0C00040E0E00080000000800020008000400080006000800080008000A0008000C0008000E00080200000802020008020400080206000802080008020A0008020C0008020E00080400000804020008040400080406000804080
310
008040A0008040C0008040E00080600000806020008060400080606000806080008060A0008060C0008060E00080800000808020008080400080806000808080008080A0008080C0008080E00080A0000080A0200080A0400080A0600080A0800080A0A00080A0C00080A0E00080C0000080C0200080C0400080C0600080C0
310
800080C0A00080C0C00080C0E00080E0000080E0200080E0400080E0600080E0800080E0A00080E0C00080E0E000C0000000C0002000C0004000C0006000C0008000C000A000C000C000C000E000C0200000C0202000C0204000C0206000C0208000C020A000C020C000C020E000C0400000C0402000C0404000C0406000C0
310
408000C040A000C040C000C040E000C0600000C0602000C0604000C0606000C0608000C060A000C060C000C060E000C0800000C0802000C0804000C0806000C0808000C080A000C080C000C080E000C0A00000C0A02000C0A04000C0A06000C0A08000C0A0A000C0A0C000C0A0E000C0C00000C0C02000C0C04000C0C06000
310
C0C08000C0C0A000F0FBFF00A4A0A000808080000000FF0000FF000000FFFF00FF000000FF00FF00FFFF0000FFFFFF00494949494949494949494949494949494949494949494949494949494949494949494949494949494949494949494949494949494949FDFDFDFDFDFD49494949494949494949494949494949494949
310
49494949494949FD49494949FD4949494949494949494949494949494949494949494949494949FD49494949FD4949494949494949494949494949494949494949494949494949FD49494949FD4949494949494949494949494949494949494949494949494949FD49494949FD494949494949494949494949494949494949
310
4949494949494949FD49494949FD4949494949494949494949494949494949494949494949494949FD49494949FD4949494949494949494949494949494949494949494949494949FD49494949FD4949494949494949494949494949494949494949494949494949FD49494949FD4949494949494949494949494949494949
310
49494949494949494949FD494949FD4949494949494949FD494949494949494949494949494949494949FD494949FD4949494949494949FD494949494949494949494949494949494949FD494949FD4949494949494949FDFDFDFD494949494949494949494949494949FD494949FD4949494949494949FDFD4949FDFDFD49
310
4949494949494949494949FD494949FD4949494949494949FDFD4949494949FDFDFDFD4949494949494949FD494949FD4949494949494949FDFD494949494949494949FDFDFDFDFDFD4949FD494949FD4949494949494949FDFD4949494949494949494949494949FD4949FD494949FD4949494949494949FDFD4949494949
310
494949494949494949FDFDFDFDFDFDFDFD4949494949494949FDFD4949494949494949494949494949FD49494949FDFDFD4949494949494949FDFD4949494949494949494949494949FD494949494949FD4949494949494949FDFD4949494949494949494949494949FD494949494949FD4949494949494949FDFD49494949
310
49494949494949494949FDFDFDFD494949FD4949494949494949FDFD4949494949494949494949494949FDFD4949FDFDFDFD4949494949494949FDFD494949494949494949494949FDFDFD494949494949494949494949494949FDFD49494949494949FDFDFDFDFD494949494949494949494949494949494949FDFD494949
310
FDFDFDFD4949494949494949494949494949494949494949494949FDFD49FDFD494949494949494949494949494949494949494949494949494949FDFDFD4949494949494949494949494949494949494949494949494949494949FD49494949494949494949494949494949494949494949494949494949494949FD494949
310
4949494949494949494949494949494949494949494949494949494949494949494949494949494949494949494949494949494949494949
102
{BLKREFS
331
148
102
}
 70
     1
280
     1
281
     1
  0
BLOCK_RECORD
  5
149
330
1
100
AcDbSymbolTableRecord
100
AcDbBlockTableRecord
  2
AMSTD_Estate_T722.430_Front View
340
0
310
2800000020000000200000000100080000000000000400000000000000000000000000000000000000000000000080000080000000808000800000008000800080800000C0C0C000C0DCC000F0CAA6000020400000206000002080000020A0000020C0000020E00000400000004020000040400000406000004080000040A0
310
000040C0000040E00000600000006020000060400000606000006080000060A0000060C0000060E00000800000008020000080400000806000008080000080A0000080C0000080E00000A0000000A0200000A0400000A0600000A0800000A0A00000A0C00000A0E00000C0000000C0200000C0400000C0600000C0800000C0
310
A00000C0C00000C0E00000E0000000E0200000E0400000E0600000E0800000E0A00000E0C00000E0E00040000000400020004000400040006000400080004000A0004000C0004000E00040200000402020004020400040206000402080004020A0004020C0004020E000404000004040200040404000404060004040800040
310
40A0004040C0004040E00040600000406020004060400040606000406080004060A0004060C0004060E00040800000408020004080400040806000408080004080A0004080C0004080E00040A0000040A0200040A0400040A0600040A0800040A0A00040A0C00040A0E00040C0000040C0200040C0400040C0600040C08000
310
40C0A00040C0C00040C0E00040E0000040E0200040E0400040E0600040E0800040E0A00040E0C00040E0E00080000000800020008000400080006000800080008000A0008000C0008000E00080200000802020008020400080206000802080008020A0008020C0008020E00080400000804020008040400080406000804080
310
008040A0008040C0008040E00080600000806020008060400080606000806080008060A0008060C0008060E00080800000808020008080400080806000808080008080A0008080C0008080E00080A0000080A0200080A0400080A0600080A0800080A0A00080A0C00080A0E00080C0000080C0200080C0400080C0600080C0
310
800080C0A00080C0C00080C0E00080E0000080E0200080E0400080E0600080E0800080E0A00080E0C00080E0E000C0000000C0002000C0004000C0006000C0008000C000A000C000C000C000E000C0200000C0202000C0204000C0206000C0208000C020A000C020C000C020E000C0400000C0402000C0404000C0406000C0
310
408000C040A000C040C000C040E000C0600000C0602000C0604000C0606000C0608000C060A000C060C000C060E000C0800000C0802000C0804000C0806000C0808000C080A000C080C000C080E000C0A00000C0A02000C0A04000C0A06000C0A08000C0A0A000C0A0C000C0A0E000C0C00000C0C02000C0C04000C0C06000
310
C0C08000C0C0A000F0FBFF00A4A0A000808080000000FF0000FF000000FFFF00FF000000FF00FF00FFFF0000FFFFFF00494949494949494949494949494949494949494949494949494949494949494949494949494949494949494949FDFDFDFDFDFD4949494949494949494949494949494949494949494949494949FD49
310
494949FD4949494949494949494949494949494949494949494949494949FD49494949FD4949494949494949494949494949494949494949494949494949FD49494949FD4949494949494949494949494949494949494949494949494949FD49494949FD4949494949494949494949494949494949494949494949494949FD
310
49494949FD4949494949494949494949494949494949494949494949494949FD49494949FD4949494949494949494949494949494949494949494949494949FD49494949FD4949494949494949494949494949494949494949494949494949FD49494949FD4949494949494949494949494949494949494949494949494949
310
FD49494949FD49494949494949494949494949494949494949494949494949FDFD49494949FDFD49494949494949494949494949494949494949494949FDFDFDFD49494949FDFDFDFD49494949494949494949494949494949494949FDFD49FDFD49494949FDFD49FDFD4949494949494949494949494949494949FDFD49FD
310
49FD49494949FD49FD49FDFD494949494949494949494949494949FDFD49FD4949FD49494949FD4949FD49FDFD4949494949494949494949494949FD49FD494949FD49494949FD494949FD49FD4949494949494949494949494949FD49FD494949FD49494949FD49494949FDFD49494949494949494949494949FD49FD4949
310
4949FDFDFDFDFDFD49494949FDFDFD494949494949494949494949FD49FD49494949FD49494949FD49494949FD49FD494949494949494949494949FD49FD49494949FD49494949FD49494949FD49FD494949494949494949494949FD49FD49494949FD49494949FD49494949FD49FD494949494949494949494949FD49FD49
310
494949FDFD4949FDFD49494949FD49FD494949494949494949494949FDFD49FD49494949FDFDFDFD49494949FD49FDFD49494949494949494949494949FD49FD494949494949494949494949FD49FD4949494949494949494949494949FDFDFD494949494949494949494949FDFDFD494949494949494949494949494949FD
310
FDFD49494949494949494949FD49FD4949494949494949494949494949494949FD49FDFDFD49494949FDFDFD49FD49494949494949494949494949494949494949FDFD4949FDFDFDFD4949FDFD494949494949494949494949494949494949494949FDFDFDFD4949FDFDFDFD49494949494949494949494949494949494949
310
494949494949FDFDFD4949494949494949494949494949494949494949494949494949494949494949494949494949494949494949494949
102
{BLKREFS
331
165
102
}
 70
     1
280
     1
281
     1
  0
ENDTAB
  0
ENDSEC
  0
SECTION
  2
BLOCKS
  0
BLOCK
  5
71
330
70
100
AcDbEntity
  8
0
100
AcDbBlockBegin
  2
*Model_Space
 70
     0
 10
0.0
 20
0.0
 30
0.0
  3
*Model_Space
  1

  0
ENDBLK
  5
72
330
70
100
AcDbEntity
  8
0
100
AcDbBlockEnd
  0
BLOCK
  5
6D
330
6C
100
AcDbEntity
 67
     1
  8
0
100
AcDbBlockBegin
  2
*Paper_Space
 70
     0
 10
0.0
 20
0.0
 30
0.0
  3
*Paper_Space
  1

  0
ENDBLK
  5
6E
330
6C
100
AcDbEntity
 67
     1
  8
0
100
AcDbBlockEnd
  0
BLOCK
  5
75
330
74
100
AcDbEntity
 67
     1
  8
0
100
AcDbBlockBegin
  2
*Paper_Space0
 70
     0
 10
0.0
 20
0.0
 30
0.0
  3
*Paper_Space0
  1

  0
ENDBLK
  5
76
330
74
100
AcDbEntity
 67
     1
  8
0
100
AcDbBlockEnd
  0
BLOCK
  5
F0
330
EF
100
AcDbEntity
  8
0
100
AcDbBlockBegin
  2
AMSTD_Estate_T722.430_Plan View
 70
     0
 10
0.0
 20
0.0
 30
0.0
  3
AMSTD_Estate_T722.430_Plan View
  1

  0
ARC
  5
F2
330
EF
100
AcDbEntity
  8
T722.430
100
AcDbCircle
 10
-1.326073558951952
 20
-0.0488826932547442
 30
0.0
 40
0.0488826932547488
100
AcDbArc
 50
89.99999999999978
 51
179.9999999999995
1001
REVIT
1002
{
1070
     1
1000
42083
1002
}
1002
{
1070
     2
1000
-2001160
1002
}
  0
LINE
  5
F3
330
EF
100
AcDbEntity
  8
T722.430
100
AcDbLine
 10
-1.326073558951952
 20
-0.000000000000004
 30
0.0
 11
1.326073558951952
 21
0.0000000000000044
 31
0.0
1001
REVIT
1002
{
1070
     1
1000
42083
1002
}
1002
{
1070
     2
1000
-2001160
1002
}
  0
ARC
  5
F4
330
EF
100
AcDbEntity
  8
T722.430
100
AcDbCircle
 10
1.326073558951953
 20
-0.0488826932547446
 30
0.0
 40
0.0488826932547489
100
AcDbArc
 50
0.0000000000003053
 51
90.00000000000044
1001
REVIT
1002
{
1070
     1
1000
42083
1002
}
1002
{
1070
     2
1000
-2001160
1002
}
  0
LINE
  5
F5
330
EF
100
AcDbEntity
  8
T722.430
100
AcDbLine
 10
1.374956252206701
 20
-0.0488826932547486
 30
0.0
 11
1.374956252206701
 21
-0.1142019699699421
 31
0.0
1001
REVIT
1002
{
1070
     1
1000
42083
1002
}
1002
{
1070
     2
1000
-2001160
1002
}
  0
ARC
  5
F6
330
EF
100
AcDbEntity
  8
T722.430
100
AcDbCircle
 10
1.353962534319574
 20
-0.1142019699699377
 30
0.0
 40
0.0209937178871268
100
AcDbArc
 50
275.6996314361397
 51
0.0000000000009669
1001
REVIT
1002
{
1070
     1
1000
42083
1002
}
1002
{
1070
     2
1000
-2001160
1002
}
  0
LINE
  5
F7
330
EF
100
AcDbEntity
  8
T722.430
100
AcDbLine
 10
1.356047490748691
 20
-0.1350918992999555
 30
0.0
 11
0.6276953550937398
 21
-0.2077863753752382
 31
0.0
1001
REVIT
1002
{
1070
     1
1000
42083
1002
}
1002
{
1070
     2
1000
-2001160
1002
}
  0
ARC
  5
F8
330
EF
100
AcDbEntity
  8
T722.430
100
AcDbCircle
 10
0.6303674389729441
 20
-0.2345589460730728
 30
0.0
 40
0.0269055862977962
100
AcDbArc
 50
95.6996314361387
 51
179.9999999999989
1001
REVIT
1002
{
1070
     1
1000
42083
1002
}
1002
{
1070
     2
1000
-2001160
1002
}
  0
LINE
  5
F9
330
EF
100
AcDbEntity
  8
T722.430
100
AcDbLine
 10
0.6034618526751478
 20
-0.2345589460730748
 30
0.0
 11
0.6034618526751478
 21
-0.2701195049576848
 31
0.0
1001
REVIT
1002
{
1070
     1
1000
42083
1002
}
1002
{
1070
     2
1000
-2001160
1002
}
  0
ARC
  5
FA
330
EF
100
AcDbEntity
  8
T722.430
100
AcDbCircle
 10
7.812200727516852
 20
-3.112073694573109
 30
0.0
 40
7.267353472654708
100
AcDbArc
 50
156.9796743468086
 51
174.019976155267
1001
REVIT
1002
{
1070
     1
1000
42083
1002
}
1002
{
1070
     2
1000
-2001160
1002
}
  0
ARC
  5
FB
330
EF
100
AcDbEntity
  8
T722.430
100
AcDbCircle
 10
0.5190720043820651
 20
-2.348105719811979
 30
0.0
 40
0.0656795723188632
100
AcDbArc
 50
316.615015349754
 51
354.0199761552667
1001
REVIT
1002
{
1070
     1
1000
42083
1002
}
1002
{
1070
     2
1000
-2001160
1002
}
  0
ARC
  5
FC
330
EF
100
AcDbEntity
  8
T722.430
100
AcDbCircle
 10
0.406999154228876
 20
-2.242179315663082
 30
0.0
 40
0.2198895811943402
100
AcDbArc
 50
266.4735064351163
 51
316.6150153497533
1001
REVIT
1002
{
1070
     1
1000
42083
1002
}
1002
{
1070
     2
1000
-2001160
1002
}
  0
ARC
  5
FD
330
EF
100
AcDbEntity
  8
T722.430
100
AcDbCircle
 10
0.3893845401070999
 20
-2.52800666172731
 30
0.0
 40
0.0664800163344113
100
AcDbArc
 50
86.47350643511497
 51
171.6062359277805
1001
REVIT
1002
{
1070
     1
1000
42083
1002
}
1002
{
1070
     2
1000
-2001160
1002
}
  0
ARC
  5
FE
330
EF
100
AcDbEntity
  8
T722.430
100
AcDbCircle
 10
1.063286789406207
 20
-2.627444944055894
 30
0.0
 40
0.7476791161597532
100
AcDbArc
 50
171.6062359277808
 51
187.3125302625377
1001
REVIT
1002
{
1070
     1
1000
42083
1002
}
1002
{
1070
     2
1000
-2001160
1002
}
  0
ARC
  5
FF
330
EF
100
AcDbEntity
  8
T722.430
100
AcDbCircle
 10
-21.2269385536079
 20
-5.487843547246435
 30
0.0
 40
21.72532749202426
100
AcDbArc
 50
5.44642882519735
 51
7.312530262537769
1001
REVIT
1002
{
1070
     1
1000
42083
1002
}
1002
{
1070
     2
1000
-2001160
1002
}
  0
ARC
  5
100
330
EF
100
AcDbEntity
  8
T722.430
100
AcDbCircle
 10
0.3547515446535296
 20
-3.430127148023966
 30
0.0
 40
0.0457623608454454
100
AcDbArc
 50
289.8451071297519
 51
5.44642882519137
1001
REVIT
1002
{
1070
     1
1000
42083
1002
}
1002
{
1070
     2
1000
-2001160
1002
}
  0
ARC
  5
101
330
EF
100
AcDbEntity
  8
T722.430
100
AcDbCircle
 10
0.2169250070811
 20
-3.048242793679799
 30
0.0
 40
0.4517572063201947
100
AcDbArc
 50
270.0000000000009
 51
289.8451071297521
1001
REVIT
1002
{
1070
     1
1000
42083
1002
}
1002
{
1070
     2
1000
-2001160
1002
}
  0
LINE
  5
102
330
EF
100
AcDbEntity
  8
T722.430
100
AcDbLine
 10
0.2169250070811002
 20
-3.499999999999995
 30
0.0
 11
-0.2169250070811125
 21
-3.499999999999994
 31
0.0
1001
REVIT
1002
{
1070
     1
1000
42083
1002
}
1002
{
1070
     2
1000
-2001160
1002
}
  0
ARC
  5
103
330
EF
100
AcDbEntity
  8
T722.430
100
AcDbCircle
 10
-0.2169250070811091
 20
-3.048242793679791
 30
0.0
 40
0.4517572063202035
100
AcDbArc
 50
250.1548928702487
 51
269.9999999999996
1001
REVIT
1002
{
1070
     1
1000
42083
1002
}
1002
{
1070
     2
1000
-2001160
1002
}
  0
ARC
  5
104
330
EF
100
AcDbEntity
  8
T722.430
100
AcDbCircle
 10
-0.3547515446535399
 20
-3.430127148023965
 30
0.0
 40
0.045762360845447
100
AcDbArc
 50
174.5535711748097
 51
250.1548928702474
1001
REVIT
1002
{
1070
     1
1000
42083
1002
}
1002
{
1070
     2
1000
-2001160
1002
}
  0
ARC
  5
105
330
EF
100
AcDbEntity
  8
T722.430
100
AcDbCircle
 10
21.22693855362588
 20
-5.487843547248441
 30
0.0
 40
21.72532749204236
100
AcDbArc
 50
172.6874697374624
 51
174.5535711748013
1001
REVIT
1002
{
1070
     1
1000
42083
1002
}
1002
{
1070
     2
1000
-2001160
1002
}
  0
ARC
  5
106
330
EF
100
AcDbEntity
  8
T722.430
100
AcDbCircle
 10
-1.063286789406207
 20
-2.627444944055895
 30
0.0
 40
0.7476791161597446
100
AcDbArc
 50
352.6874697374621
 51
8.393764072218381
1001
REVIT
1002
{
1070
     1
1000
42083
1002
}
1002
{
1070
     2
1000
-2001160
1002
}
  0
ARC
  5
107
330
EF
100
AcDbEntity
  8
T722.430
100
AcDbCircle
 10
-0.3893845401071086
 20
-2.52800666172731
 30
0.0
 40
0.0664800163344111
100
AcDbArc
 50
8.393764072217996
 51
93.52649356488354
1001
REVIT
1002
{
1070
     1
1000
42083
1002
}
1002
{
1070
     2
1000
-2001160
1002
}
  0
ARC
  5
108
330
EF
100
AcDbEntity
  8
T722.430
100
AcDbCircle
 10
-0.4069991542288826
 20
-2.242179315663078
 30
0.0
 40
0.2198895811943439
100
AcDbArc
 50
223.3849846502477
 51
273.5264935648838
1001
REVIT
1002
{
1070
     1
1000
42083
1002
}
1002
{
1070
     2
1000
-2001160
1002
}
  0
ARC
  5
109
330
EF
100
AcDbEntity
  8
T722.430
100
AcDbCircle
 10
-0.5190720043820799
 20
-2.348105719811982
 30
0.0
 40
0.0656795723188564
100
AcDbArc
 50
185.980023844732
 51
223.3849846502483
1001
REVIT
1002
{
1070
     1
1000
42083
1002
}
1002
{
1070
     2
1000
-2001160
1002
}
  0
ARC
  5
10A
330
EF
100
AcDbEntity
  8
T722.430
100
AcDbCircle
 10
-7.812200727516872
 20
-3.112073694573106
 30
0.0
 40
7.267353472654712
100
AcDbArc
 50
5.98002384473162
 51
23.02032565318999
1001
REVIT
1002
{
1070
     1
1000
42083
1002
}
1002
{
1070
     2
1000
-2001160
1002
}
  0
LINE
  5
10B
330
EF
100
AcDbEntity
  8
T722.430
100
AcDbLine
 10
-1.123574345318965
 20
-0.2701195049576843
 30
0.0
 11
1.123574345318964
 21
-0.2701195049576881
 31
0.0
1001
REVIT
1002
{
1070
     1
1000
42083
1002
}
1002
{
1070
     2
1000
-2001160
1002
}
  0
LINE
  5
10C
330
EF
100
AcDbEntity
  8
T722.430
100
AcDbLine
 10
-0.6034618526751485
 20
-0.2701195049576825
 30
0.0
 11
-0.6034618526751486
 21
-0.2345589460730726
 31
0.0
1001
REVIT
1002
{
1070
     1
1000
42083
1002
}
1002
{
1070
     2
1000
-2001160
1002
}
  0
ARC
  5
10D
330
EF
100
AcDbEntity
  8
T722.430
100
AcDbCircle
 10
-0.630367438972945
 20
-0.234558946073073
 30
0.0
 40
0.0269055862977966
100
AcDbArc
 50
0.000000000000687
 51
84.30036856385969
1001
REVIT
1002
{
1070
     1
1000
42083
1002
}
1002
{
1070
     2
1000
-2001160
1002
}
  0
LINE
  5
10E
330
EF
100
AcDbEntity
  8
T722.430
100
AcDbLine
 10
-0.6276953550937403
 20
-0.2077863753752362
 30
0.0
 11
-1.356047490748691
 21
-0.135091899299951
 31
0.0
1001
REVIT
1002
{
1070
     1
1000
42083
1002
}
1002
{
1070
     2
1000
-2001160
1002
}
  0
ARC
  5
10F
330
EF
100
AcDbEntity
  8
T722.430
100
AcDbCircle
 10
-1.353962534319574
 20
-0.1142019699699377
 30
0.0
 40
0.0209937178871271
100
AcDbArc
 50
179.9999999999994
 51
264.3003685638601
1001
REVIT
1002
{
1070
     1
1000
42083
1002
}
1002
{
1070
     2
1000
-2001160
1002
}
  0
LINE
  5
110
330
EF
100
AcDbEntity
  8
T722.430
100
AcDbLine
 10
-1.374956252206701
 20
-0.1142019699699373
 30
0.0
 11
-1.374956252206701
 21
-0.0488826932547442
 31
0.0
1001
REVIT
1002
{
1070
     1
1000
42083
1002
}
1002
{
1070
     2
1000
-2001160
1002
}
  0
LINE
  5
111
330
EF
100
AcDbEntity
  8
T722.430
100
AcDbLine
 10
-0.6276953550937403
 20
-0.2077863753752362
 30
0.0
 11
0.6276953550937937
 21
-0.2077863753752323
 31
0.0
1001
REVIT
1002
{
1070
     1
1000
43620
1002
}
1002
{
1070
     2
1000
-2001160
1002
}
  0
LINE
  5
112
330
EF
100
AcDbEntity
  8
T722.430
100
AcDbLine
 10
-0.3934737305960617
 20
-2.461652527771929
 30
0.0
 11
0.393473730596011
 21
-2.461652527771927
 31
0.0
1001
REVIT
1002
{
1070
     1
1000
43715
1002
}
1002
{
1070
     2
1000
-2001160
1002
}
  0
ENDBLK
  5
F1
330
EF
100
AcDbEntity
  8
0
100
AcDbBlockEnd
  0
BLOCK
  5
115
330
114
100
AcDbEntity
  8
0
100
AcDbBlockBegin
  2
AMSTD_Estate_T722.430_Side View
 70
     0
 10
0.0
 20
0.0
 30
0.0
  3
AMSTD_Estate_T722.430_Side View
  1

  0
LWPOLYLINE
  5
116
330
114
100
AcDbEntity
  8
T722.430
100
AcDbPolyline
 90
        2
 70
   128
 43
0.0
 10
0.0000000000000189
 20
1.32810335531116
 10
-0.0000000000000189
 20
-1.32810335531116
1001
REVIT
1002
{
1070
     2
1000
-2001160
1002
}
  0
LWPOLYLINE
  5
117
330
114
100
AcDbEntity
  8
T722.430
100
AcDbPolyline
 90
       41
 70
   128
 43
0.0
 10
0.0000000000000189
 20
1.32810335531116
 10
0.0000375123137282
 20
1.329978720907854
 10
0.0001499892431558
 20
1.33185108631965
 10
0.0003372508492081
 20
1.333717456161306
 10
0.0005989975532632
 20
1.335574844639212
 10
0.0009348106164309
 20
1.337420280328026
 10
0.001344152809446
 20
1.339250810924318
 10
0.0018263692721212
 20
1.341063507969626
 10
0.0023806885609841
 20
1.342855471535365
 10
0.0030062238834212
 20
1.344623834862096
 10
0.0037019745163562
 20
1.346365768945726
 10
0.0044668274071951
 20
1.348078487063315
 10
0.0052995589544735
 20
1.349759249231235
 10
0.0061988369653549
 20
1.35140536658856
 10
0.0071632227868592
 20
1.353014205698672
 10
0.0081911736073945
 20
1.354583192762195
 10
0.0092810449249336
 20
1.356109817734528
 10
0.0104310931778615
 20
1.357591638341376
 10
0.0116394785343039
 20
1.359026283985874
 10
0.0129042678354665
 20
1.360411459541032
 10
0.0142234376882742
 20
1.361744949021451
 10
0.0155948777023705
 20
1.363024619128423
 10
0.0170163938662902
 20
1.364248422662761
 10
0.0184857120574131
 20
1.365414401799871
 10
0.0200004816800705
 20
1.366520691221866
 10
0.0215582794260003
 20
1.367565521101665
 10
0.0231566131511201
 20
1.368547219934345
 10
0.0247929258624311
 20
1.369464217211192
 10
0.0264645998086557
 20
1.37031504593218
 10
0.0281689606680844
 20
1.371098344952854
 10
0.0299032818269205
 20
1.371812861161877
 10
0.0316647887412787
 20
1.372457451485736
 10
0.0334506633758638
 20
1.373031084717417
 10
0.0352580487122261
 20
1.373532843166121
 10
0.0370840533193828
 20
1.373961924125363
 10
0.0389257559794898
 20
1.374317641157142
 10
0.0407802103611661
 20
1.37459942519009
 10
0.0426444497329972
 20
1.374806825429864
 10
0.0445154917096711
 20
1.374939510080323
 10
0.0463903430231596
 20
1.374997266874333
 10
0.0468966446888601
 20
1.375
1001
REVIT
1002
{
1070
     2
1000
-2001160
1002
}
  0
LWPOLYLINE
  5
118
330
114
100
AcDbEntity
  8
T722.430
100
AcDbPolyline
 90
       41
 70
   128
 43
0.0
 10
0.046896644688821
 20
-1.375000000000001
 10
0.0450212790921271
 20
-1.374962487686292
 10
0.0431489136803311
 20
-1.374850010756865
 10
0.0412825438386754
 20
-1.374662749150812
 10
0.0394251553607691
 20
-1.374401002446757
 10
0.0375797196719554
 20
-1.374065189383589
 10
0.0357491890756631
 20
-1.373655847190574
 10
0.0339364920303555
 20
-1.373173630727898
 10
0.0321445284646171
 20
-1.372619311439036
 10
0.0303761651378857
 20
-1.371993776116599
 10
0.0286342310542557
 20
-1.371298025483664
 10
0.0269215129366662
 20
-1.370533172592824
 10
0.0252407507687471
 20
-1.369700441045546
 10
0.0235946334114216
 20
-1.368801163034664
 10
0.0219857943013099
 20
-1.36783677721316
 10
0.0204168072377863
 20
-1.366808826392625
 10
0.0188901822654543
 20
-1.365718955075086
 10
0.017408361658606
 20
-1.364568906822158
 10
0.0159737160141075
 20
-1.363360521465716
 10
0.0145885404589494
 20
-1.362095732164553
 10
0.0132550509785314
 20
-1.360776562311745
 10
0.0119753808715585
 20
-1.359405122297649
 10
0.0107515773372211
 20
-1.357983606133729
 10
0.00958559820011
 20
-1.356514287942606
 10
0.0084793087781156
 20
-1.354999518319949
 10
0.0074344788983167
 20
-1.353441720574019
 10
0.0064527800656364
 20
-1.351843386848899
 10
0.0055357827887892
 20
-1.350207074137588
 10
0.0046849540678018
 20
-1.348535400191364
 10
0.003901655047128
 20
-1.346831039331935
 10
0.0031871388381053
 20
-1.345096718173099
 10
0.0025425485142461
 20
-1.343335211258741
 10
0.0019689152825642
 20
-1.341549336624156
 10
0.0014671568338609
 20
-1.339741951287793
 10
0.0010380758746182
 20
-1.337915946680637
 10
0.0006823588428393
 20
-1.33607424402053
 10
0.0004005748098914
 20
-1.334219789638853
 10
0.0001931745701178
 20
-1.332355550267023
 10
0.0000604899196583
 20
-1.330484508290349
 10
0.0000027331256489
 20
-1.328609656976861
 10
-0.0000000000000189
 20
-1.32810335531116
1001
REVIT
1002
{
1070
     2
1000
-2001160
1002
}
  0
LINE
  5
119
330
114
100
AcDbEntity
  8
T722.430
100
AcDbLine
 10
0.0468966446888203
 20
-1.375000000000018
 30
0.0
 11
0.113681415340709
 21
-1.375000000000019
 31
0.0
1001
REVIT
1002
{
1070
     2
1000
-2001160
1002
}
  0
LINE
  5
11A
330
114
100
AcDbEntity
  8
T722.430
100
AcDbLine
 10
0.1136814153407482
 20
1.375000000000016
 30
0.0
 11
0.0468966446888595
 21
1.375000000000017
 31
0.0
1001
REVIT
1002
{
1070
     2
1000
-2001160
1002
}
  0
LWPOLYLINE
  5
11B
330
114
100
AcDbEntity
  8
T722.430
100
AcDbPolyline
 90
       38
 70
   128
 43
0.0
 10
0.1136814153407488
 20
1.375
 10
0.1145270231229263
 20
1.374983085589041
 10
0.1153712781130387
 20
1.374932369415615
 10
0.1162128296832006
 20
1.37484793261478
 10
0.1170503315304208
 20
1.374729910267405
 10
0.1178824438304011
 20
1.374578491184069
 10
0.1187078353809698
 20
1.374393917603004
 10
0.1195251857317199
 20
1.374176484802567
 10
0.1203331872964493
 20
1.373926540628855
 10
0.1211305474450184
 20
1.373644484939227
 10
0.1219159905712839
 20
1.373330768962619
 10
0.1226882601337962
 20
1.37298589457767
 10
0.1234461206659969
 20
1.372610413509826
 10
0.1241883597527038
 20
1.372204926448699
 10
0.1249137899697132
 20
1.371770082087086
 10
0.1256212507834287
 20
1.371306576083204
 10
0.1263096104074648
 20
1.370815149947784
 10
0.126977767613266
 20
1.37029658985781
 10
0.1276246534918342
 20
1.369751725398807
 10
0.1282492331637599
 20
1.369181428237675
 10
0.1288505074348045
 20
1.368586610728218
 10
0.1294275143943981
 20
1.367968224451562
 10
0.1299793309544954
 20
1.367327258693833
 10
0.1305050743263136
 20
1.366664738863514
 10
0.1310039034326109
 20
1.365981724851001
 10
0.131475020253228
 20
1.365279309333015
 10
0.1319176711017516
 20
1.364558616024541
 10
0.1323311478312519
 20
1.363820797881136
 10
0.1327147889671645
 20
1.363067035254433
 10
0.1330679807655111
 20
1.362298534003844
 10
0.1333901581947587
 20
1.361516523567429
 10
0.1336808058397469
 20
1.360722254995069
 10
0.1339394587262459
 20
1.359916998947042
 10
0.1341657030648136
 20
1.359102043661249
 10
0.1343591769127714
 20
1.358278692892297
 10
0.1345195707532341
 20
1.357448263825779
 10
0.1346466279902729
 20
1.356612084971051
 10
0.1347238962675261
 20
1.355942288023916
1001
REVIT
1002
{
1070
     2
1000
-2001160
1002
}
  0
LWPOLYLINE
  5
11C
330
114
100
AcDbEntity
  8
T722.430
100
AcDbPolyline
 90
       38
 70
   128
 43
0.0
 10
0.1347238962674883
 20
-1.355942288023919
 10
0.1346235619580249
 20
-1.356782092551724
 10
0.1344897246813943
 20
-1.35761721302325
 10
0.1343225985486873
 20
-1.358446313423891
 10
0.1341224509260652
 20
-1.359268067369872
 10
0.1338896020070277
 20
-1.360081160230178
 10
0.1336244243001747
 20
-1.360884291229683
 10
0.1333273420332679
 20
-1.361676175530112
 10
0.1329988304745606
 20
-1.362455546285512
 10
0.1326394151724683
 20
-1.363221156668931
 10
0.1322496711148024
 20
-1.363971781867077
 10
0.1318302218089146
 20
-1.364706221039757
 10
0.1313817382842163
 20
-1.365423299240968
 10
0.1309049380186766
 20
-1.366121869298556
 10
0.1304005837910069
 20
-1.366800813649448
 10
0.1298694824603827
 20
-1.367459046127519
 10
0.1293124836756374
 20
-1.368095513701217
 10
0.1287304785160066
 20
-1.368709198158198
 10
0.1281243980655901
 20
-1.369299117734242
 10
0.1274952119238195
 20
-1.369864328683872
 10
0.1268439266543024
 20
-1.370403926790139
 10
0.1261715841745358
 20
-1.370917048811181
 10
0.1254792600890626
 20
-1.371402873861225
 10
0.124768061968731
 20
-1.371860624723829
 10
0.1240391275788197
 20
-1.372289569095259
 10
0.123293623058855
 20
-1.372689020756026
 10
0.1225327410570358
 20
-1.373058340668684
 10
0.121757698822253
 20
-1.373396938000156
 10
0.1209697362567483
 20
-1.373704271066942
 10
0.120170113932537
 20
-1.373979848201698
 10
0.1193601110747604
 20
-1.374223228539793
 10
0.1185410235151995
 20
-1.374434022724604
 10
0.1177141616192214
 20
-1.374611893530404
 10
0.1168808481894707
 20
-1.374756556401847
 10
0.1160424163496709
 20
-1.374867779909197
 10
0.11520020741191
 20
-1.374945386118571
 10
0.1143555687308273
 20
-1.374989250876588
 10
0.1136814153407097
 20
-1.375000000000002
1001
REVIT
1002
{
1070
     2
1000
-2001160
1002
}
  0
LINE
  5
11D
330
114
100
AcDbEntity
  8
T722.430
100
AcDbLine
 10
0.1347238962674877
 20
-1.355942288023919
 30
0.0
 11
0.2071572005098624
 21
-0.6260150418236444
 31
0.0
1001
REVIT
1002
{
1070
     2
1000
-2001160
1002
}
  0
LINE
  5
11E
330
114
100
AcDbEntity
  8
T722.430
100
AcDbLine
 10
0.2071572005098799
 20
0.626015041823639
 30
0.0
 11
0.1347238962675255
 21
1.355942288023916
 31
0.0
1001
REVIT
1002
{
1070
     2
1000
-2001160
1002
}
  0
LINE
  5
11F
330
114
100
AcDbEntity
  8
T722.430
100
AcDbLine
 10
0.2320591957280077
 20
-0.6034618526751103
 30
0.0
 11
0.270119504957677
 21
-0.6034618526751105
 31
0.0
1001
REVIT
1002
{
1070
     2
1000
-2001160
1002
}
  0
LINE
  5
120
330
114
100
AcDbEntity
  8
T722.430
100
AcDbLine
 10
0.2701195049576939
 20
0.6034618526751033
 30
0.0
 11
0.2320591957280253
 21
0.6034618526751041
 31
0.0
1001
REVIT
1002
{
1070
     2
1000
-2001160
1002
}
  0
LWPOLYLINE
  5
121
330
114
100
AcDbEntity
  8
T722.430
100
AcDbPolyline
 90
       38
 70
   128
 43
0.0
 10
0.2071572005098806
 20
0.6260150418236396
 10
0.2072759376732009
 20
0.6250212042429691
 10
0.207434322762596
 20
0.6240329098464639
 10
0.207632102395709
 20
0.6230517396943332
 10
0.207868960167319
 20
0.6220792634495154
 10
0.2081445171555178
 20
0.621117036866552
 10
0.2084583325279064
 20
0.6201665993027117
 10
0.2088099042468331
 20
0.619229471255347
 10
0.2091986698725448
 20
0.6183071519294236
 10
0.209624007462974
 20
0.6174011168391127
 10
0.2100852365687081
 20
0.6165128154472815
 10
0.2105816193215696
 20
0.615643668846662
 10
0.2111123616150431
 20
0.614795067486408
 10
0.2116766143746779
 20
0.6139683689476701
 10
0.2122734749164251
 20
0.6131648957717575
 10
0.2129019883907427
 20
0.6123859333443531
 10
0.2135611493101473
 20
0.6116327278391709
 10
0.2142499031577806
 20
0.6109064842243442
 10
0.2149671480744132
 20
0.610208364334733
 10
0.2157117366211826
 20
0.6095394850132358
 10
0.2164824776152511
 20
0.6089009163240809
 10
0.2172781380354442
 20
0.6082936798409504
 10
0.2180974449948213
 20
0.60771874701268
 10
0.2189390877770231
 20
0.6071770376091492
 10
0.2198017199331398
 20
0.6066694182498451
 10
0.2206839614357397
 20
0.6061967010174567
 10
0.22158440088662
 20
0.6057596421587142
 10
0.2225015977747421
 20
0.6053589408745577
 10
0.2234340847807447
 20
0.6049952382015636
 10
0.2243803701243371
 20
0.6046691159864226
 10
0.2253389399508338
 20
0.6043810959551102
 10
0.2263082607529955
 20
0.6041316388782353
 10
0.2272867818243164
 20
0.6039211438339059
 10
0.2282729377398228
 20
0.6037499475692903
 10
0.2292651508604181
 20
0.6036183239618918
 10
0.2302618338567709
 20
0.6035264835814039
 10
0.2312613922487007
 20
0.6034745733528438
 10
0.2320591957280253
 20
0.6034618526750498
1001
REVIT
1002
{
1070
     2
1000
-2001160
1002
}
  0
LWPOLYLINE
  5
122
330
114
100
AcDbEntity
  8
T722.430
100
AcDbPolyline
 90
       38
 70
   128
 43
0.0
 10
0.2320591957280077
 20
-0.6034618526750556
 10
0.2310584904869536
 20
-0.6034818694488511
 10
0.2300593861608128
 20
-0.6035418877476693
 10
0.2290634811033759
 20
-0.6036418115550354
 10
0.2280723685502871
 20
-0.6037814810141736
 10
0.2270876340702047
 20
-0.603960672683744
 10
0.2261108530282318
 20
-0.6041790998953002
 10
0.2251435880656659
 20
-0.6044364132118995
 10
0.2241873866001093
 20
-0.6047322009871265
 10
0.2232437783499272
 20
-0.6050659900236375
 10
0.2223142728870283
 20
-0.6054372463301797
 10
0.2214003572218689
 20
-0.6058453759758593
 10
0.2205034934245545
 20
-0.6062897260403063
 10
0.2196251162858415
 20
-0.6067695856582074
 10
0.2187666310217732
 20
-0.6072841871565382
 10
0.2179294110256395
 20
-0.6078327072826772
 10
0.2171147956708358
 20
-0.6084142685214343
 10
0.2163240881681548
 20
-0.6090279404988875
 10
0.215558553480926
 20
-0.6096727414707816
 10
0.2148194163013436
 20
-0.6103476398931126
 10
0.2141078590912194
 20
-0.6110515560723754
 10
0.2134250201903006
 20
-0.6117833638928434
 10
0.212771991995163
 20
-0.6125418926181147
 10
0.2121498192116139
 20
-0.6133259287640403
 10
0.2115594971833846
 20
-0.6141342180400381
 10
0.2110019702997899
 20
-0.6149654673556925
 10
0.2104781304849125
 20
-0.6158183468894225
 10
0.2099888157707087
 20
-0.6166914922159115
 10
0.2095348089563402
 20
-0.6175835064888994
 10
0.2091168363558603
 20
-0.6184929626758341
 10
0.2087355666362663
 20
-0.6194184058408249
 10
0.2083916097477773
 20
-0.6203583554722237
 10
0.2080855159480405
 20
-0.6213113078511336
 10
0.20781777492184
 20
-0.6222757384570328
 10
0.2075888149977013
 20
-0.6232501044066866
 10
0.2073990024626623
 20
-0.6242328469224296
 10
0.2072486409762871
 20
-0.6252223938258764
 10
0.2071572005098631
 20
-0.626015041823645
1001
REVIT
1002
{
1070
     2
1000
-2001160
1002
}
  0
LWPOLYLINE
  5
123
330
114
100
AcDbEntity
  8
T722.430
100
AcDbPolyline
 90
        9
 70
   128
 43
0.0
 10
0.2701195049576947
 20
1.123574345318919
 10
0.5315609231838687
 20
1.017356461972875
 10
0.7970407985947805
 20
0.9216784098478779
 10
1.06613442002246
 20
0.8366932534170981
 10
1.338411295076199
 20
0.7625369508016265
 10
1.613435838838549
 20
0.6993281362664812
 10
1.890768070708263
 20
0.6471679304310892
 10
2.169964318275403
 20
0.6061397784978691
 10
2.345265097533675
 20
0.5861745293922045
1001
REVIT
1002
{
1070
     2
1000
-2001160
1002
}
  0
LWPOLYLINE
  5
124
330
114
100
AcDbEntity
  8
T722.430
100
AcDbPolyline
 90
        9
 70
   128
 43
0.0
 10
2.345265097533659
 20
-0.5861745293922695
 10
2.065130231022258
 20
-0.6202084899503158
 10
1.786580437947058
 20
-0.6654176337642648
 10
1.510061338556192
 20
-0.7217296358481156
 10
1.236015304421091
 20
-0.7890544090111208
 10
0.9648807507363354
 20
-0.8672842479780712
 10
0.6970914349488658
 20
-0.9562940016947655
 10
0.4330757628386035
 20
-1.055941273542987
 10
0.2701195049576636
 20
-1.123574345318926
1001
REVIT
1002
{
1070
     2
1000
-2001160
1002
}
  0
LWPOLYLINE
  5
125
330
114
100
AcDbEntity
  8
T722.430
100
AcDbPolyline
 90
        5
 70
   128
 43
0.0
 10
2.858792365188509
 20
0.336751219458884
 10
3.039639469863085
 20
0.3645406540211207
 10
3.221453197128818
 20
0.3850759046942396
 10
3.403942683806943
 20
0.3983241194577833
 10
3.431151380535474
 20
0.3996718446360894
1001
REVIT
1002
{
1070
     2
1000
-2001160
1002
}
  0
LINE
  5
126
330
114
100
AcDbEntity
  8
T722.430
100
AcDbLine
 10
2.908901881576293
 20
-0.3451938414218554
 30
0.0
 11
2.8587923651885
 21
-0.3367512194589639
 31
0.0
1001
REVIT
1002
{
1070
     2
1000
-2001160
1002
}
  0
LWPOLYLINE
  5
127
330
114
100
AcDbEntity
  8
T722.430
100
AcDbPolyline
 90
       24
 70
   128
 43
0.0
 10
2.345265097533675
 20
0.5861745293922028
 10
2.349202587884198
 20
0.5856961584098388
 10
2.353117798925337
 20
0.5850607124557539
 10
2.357004467154628
 20
0.5842692081079193
 10
2.360856374732016
 20
0.583322911604447
 10
2.364667359427073
 20
0.5822233368178767
 10
2.368431324477254
 20
0.5809722428333022
 10
2.372142248341416
 20
0.5795716311342143
 10
2.375794194332996
 20
0.5780237424005504
 10
2.379381320117449
 20
0.5763310529240849
 10
2.382897887058731
 20
0.5744962706468926
 10
2.3863382693999
 20
0.572522330829218
 10
2.389696963263116
 20
0.5704123913536843
 10
2.392968595454682
 20
0.5681698276733563
 10
2.396147932061004
 20
0.565798227411734
 10
2.399229886821732
 20
0.5633013846233215
 10
2.402209529266699
 20
0.5606832937239497
 10
2.405082092603616
 20
0.5579481431005604
 10
2.407842981343924
 20
0.5551003084106839
 10
2.410487778654596
 20
0.5521443455823181
 10
2.413012253424131
 20
0.5490849835254168
 10
2.415412367031421
 20
0.5459271165666423
 10
2.417684279806692
 20
0.5426757966194851
 10
2.41844836954273
 20
0.5415168892376308
1001
REVIT
1002
{
1070
     2
1000
-2001160
1002
}
  0
LWPOLYLINE
  5
128
330
114
100
AcDbEntity
  8
T722.430
100
AcDbPolyline
 90
       24
 70
   128
 43
0.0
 10
2.418448369542715
 20
-0.5415168892376982
 10
2.416222189511737
 20
-0.5447996916269533
 10
2.413866513105526
 20
-0.5479908446672255
 10
2.411385108903812
 20
-0.5510852431943936
 10
2.408781946623981
 20
-0.5540779368309171
 10
2.406061190770369
 20
-0.5569641379053845
 10
2.403227193971944
 20
-0.5597392291117675
 10
2.400284490019031
 20
-0.5623987708961228
 10
2.397237786610211
 20
-0.5649385085589348
 10
2.394091957821009
 20
-0.5673543790617242
 10
2.390852036306413
 20
-0.5696425175270458
 10
2.387523205249701
 20
-0.5717992634214643
 10
2.38411079007045
 20
-0.57382116641163
 10
2.380620249905005
 20
-0.5757049918840752
 10
2.37705716887302
 20
-0.5774477261199057
 10
2.373427247144065
 20
-0.5790465811161067
 10
2.369736291818562
 20
-0.5804989990457557
 10
2.365990207637671
 20
-0.581802656349998
 10
2.36219498753696
 20
-0.5829554674552452
 10
2.358356703058986
 20
-0.5839555881096488
 10
2.354481494640123
 20
-0.58480141833351
 10
2.350575561787175
 20
-0.5854916049789044
 10
2.346645153159484
 20
-0.5860250438944311
 10
2.345265097533659
 20
-0.5861745293922679
1001
REVIT
1002
{
1070
     2
1000
-2001160
1002
}
  0
LWPOLYLINE
  5
129
330
114
100
AcDbEntity
  8
T722.430
100
AcDbPolyline
 90
       34
 70
   128
 43
0.0
 10
3.431151380535502
 20
0.3996718446360905
 10
3.432836750678143
 20
0.3997165424653615
 10
3.434522560140865
 20
0.3996938077112748
 10
3.436206111988149
 20
0.3996036767445865
 10
3.437884712896176
 20
0.3994462937556165
 10
3.439555677461577
 20
0.3992219105235739
 10
3.4412163324975
 20
0.3989308860137639
 10
3.442864021310143
 20
0.3985736858033211
 10
3.444496107948892
 20
0.3981508813363825
 10
3.446109981423286
 20
0.3976631490099027
 10
3.447703059880041
 20
0.3971112690915592
 10
3.449272794733464
 20
0.3964961244714935
 10
3.450816674742649
 20
0.3958186992498742
 10
3.452332230028925
 20
0.3950800771625462
 10
3.453817036027134
 20
0.3942814398472842
 10
3.455268717364423
 20
0.3934240649534268
 10
3.456684951660325
 20
0.3925093240979065
 10
3.458063473242081
 20
0.3915386806709582
 10
3.459402076769231
 20
0.3905136874950052
 10
3.460698620761683
 20
0.3894359843404755
 10
3.461951031025632
 20
0.3883072953025188
 10
3.463157303971821
 20
0.3871294260428217
 10
3.464315509820861
 20
0.385904260900934
 10
3.465423795690464
 20
0.3846337598797285
 10
3.466480388559662
 20
0.383319955509813
 10
3.467483598105256
 20
0.3819649495979163
 10
3.468431819405982
 20
0.380570909864445
 10
3.469323535510034
 20
0.3791400664755931
 10
3.470157319861869
 20
0.3776747084755527
 10
3.470931838584388
 20
0.3761771801245306
 10
3.471645852612857
 20
0.3746498771484328
 10
3.472298219677145
 20
0.373095242906214
 10
3.472887896129113
 20
0.3715157644810236
 10
3.47325552665182
 20
0.3704196224455334
1001
REVIT
1002
{
1070
     2
1000
-2001160
1002
}
  0
LWPOLYLINE
  5
12A
330
114
100
AcDbEntity
  8
T722.430
100
AcDbPolyline
 90
        2
 70
   128
 43
0.0
 10
3.499868921904572
 20
-0.2057455406035074
 10
3.500000000000008
 20
0.1991925097091298
1001
REVIT
1002
{
1070
     2
1000
-2001160
1002
}
  0
LWPOLYLINE
  5
12B
330
114
100
AcDbEntity
  8
T722.430
100
AcDbPolyline
 90
        9
 70
   128
 43
0.0
 10
3.473255526651819
 20
0.3704196224455365
 10
3.479675038287364
 20
0.3488981808644358
 10
3.485228786878746
 20
0.3271372421449934
 10
3.489907887612957
 20
0.3051716191470739
 10
3.493704854926977
 20
0.283036452181725
 10
3.49661361448308
 20
0.2607671527941735
 10
3.498629512886478
 20
0.2383993471129093
 10
3.499749325129761
 20
0.2159688188554782
 10
3.500000000000008
 20
0.1991925097090921
1001
REVIT
1002
{
1070
     2
1000
-2001160
1002
}
  0
LWPOLYLINE
  5
12C
330
114
100
AcDbEntity
  8
T722.430
100
AcDbPolyline
 90
        7
 70
   128
 43
0.0
 10
3.499868921904572
 20
-0.2057455406035074
 10
3.499550860676431
 20
-0.2216464815457766
 10
3.498204161232824
 20
-0.2440645318172923
 10
3.495962056101011
 20
-0.2664107964256226
 10
3.492828132170913
 20
-0.2886495261143429
 10
3.488807403052284
 20
-0.3107451436599611
 10
3.484561480566187
 20
-0.3299559567803709
1001
REVIT
1002
{
1070
     2
1000
-2001160
1002
}
  0
LWPOLYLINE
  5
12D
330
114
100
AcDbEntity
  8
T722.430
100
AcDbPolyline
 90
        2
 70
   128
 43
0.0
 10
2.461733464740987
 20
-0.3953730084638378
 10
2.461733464740998
 20
0.395373008463769
1001
REVIT
1002
{
1070
     2
1000
-2001160
1002
}
  0
LWPOLYLINE
  5
12E
330
114
100
AcDbEntity
  8
T722.430
100
AcDbPolyline
 90
       16
 70
   128
 43
0.0
 10
2.41844836954273
 20
0.5415168892376308
 10
2.424112533281909
 20
0.5323995525502512
 10
2.429407570070558
 20
0.5230630026231036
 10
2.434325008979363
 20
0.51352217594438
 10
2.438856983155067
 20
0.5037923358014993
 10
2.442996242405759
 20
0.4938890478631009
 10
2.446736164799633
 20
0.4838281552772981
 10
2.450070767258667
 20
0.4736257533260187
 10
2.45299471513027
 20
0.4632981636759879
 10
2.455503330721588
 20
0.4528619082675445
 10
2.457592600782819
 20
0.44233368288306
 10
2.459259182927553
 20
0.4317303304372473
 10
2.460500410979876
 20
0.4210688140320923
 10
2.461314299239686
 20
0.4103661898195073
 10
2.461699545659386
 20
0.3996395797151278
 10
2.461733464740998
 20
0.395373008463769
1001
REVIT
1002
{
1070
     2
1000
-2001160
1002
}
  0
LWPOLYLINE
  5
12F
330
114
100
AcDbEntity
  8
T722.430
100
AcDbPolyline
 90
       16
 70
   128
 43
0.0
 10
2.461733464740987
 20
-0.3953730084638378
 10
2.46151880853324
 20
-0.406104387771631
 10
2.460875183314141
 20
-0.416818599161771
 10
2.459803618746741
 20
-0.4274985021816099
 10
2.458305829105759
 20
-0.4381270112645732
 10
2.456384210535111
 20
-0.4486871230634227
 10
2.454041837214584
 20
-0.4591619436519848
 10
2.451282456441814
 20
-0.4695347155518257
 10
2.448110482637398
 20
-0.479788844540646
 10
2.444530990282773
 20
-0.489907926199495
 10
2.440549705802124
 20
-0.4998757721563401
 10
2.436172998401321
 20
-0.5096764359840112
 10
2.431407869878559
 20
-0.5192942387110814
 10
2.426261943422969
 20
-0.5287137939048749
 10
2.420743451419139
 20
-0.5379200322864795
 10
2.418448369542715
 20
-0.5415168892376982
1001
REVIT
1002
{
1070
     2
1000
-2001160
1002
}
  0
LWPOLYLINE
  5
130
330
114
100
AcDbEntity
  8
T722.430
100
AcDbPolyline
 90
        8
 70
   128
 43
0.0
 10
2.528868390964061
 20
0.3198065410422961
 10
2.583465075624634
 20
0.3170831052360108
 10
2.638126997145409
 20
0.3165451329562601
 10
2.692766708112539
 20
0.3181934848439305
 10
2.747296796644327
 20
0.3220255238876311
 10
2.801630026231587
 20
0.3280351196423505
 10
2.855679475297451
 20
0.3362126580368594
 10
2.85879236518853
 20
0.3367512194588871
1001
REVIT
1002
{
1070
     2
1000
-2001160
1002
}
  0
LWPOLYLINE
  5
131
330
114
100
AcDbEntity
  8
T722.430
100
AcDbPolyline
 90
        8
 70
   128
 43
0.0
 10
2.858792365188521
 20
-0.3367512194589666
 10
2.804761962855454
 20
-0.3284487678786214
 10
2.750442769570503
 20
-0.3223135971891287
 10
2.695921684455447
 20
-0.3183555223548246
 10
2.641285929615927
 20
-0.3165808754510988
 10
2.586622910604678
 20
-0.316992495534428
 10
2.532020076591298
 20
-0.3195897241004846
 10
2.528868390964052
 20
-0.3198065410423663
1001
REVIT
1002
{
1070
     2
1000
-2001160
1002
}
  0
LWPOLYLINE
  5
132
330
114
100
AcDbEntity
  8
T722.430
100
AcDbPolyline
 90
       39
 70
   128
 43
0.0
 10
2.461733464740998
 20
0.3908961578456864
 10
2.461772694044291
 20
0.3889349542167029
 10
2.461945837664622
 20
0.3860526909149542
 10
2.462234102578913
 20
0.3831796570145176
 10
2.462637027624793
 20
0.3803204487567524
 10
2.463153968208141
 20
0.3774796402649396
 10
2.4637840973343
 20
0.3746617762266591
 10
2.464526406931088
 20
0.3718713646232592
 10
2.4653797094615
 20
0.3691128695180503
 10
2.466342639823515
 20
0.3663907039147529
 10
2.46741365753397
 20
0.3637092226976339
 10
2.468591049192999
 20
0.3610727156646227
 10
2.469872931225111
 20
0.3584854006645468
 10
2.471257252892509
 20
0.3559514168494755
 10
2.472741799575829
 20
0.3534748180529585
 10
2.474324196317067
 20
0.3510595663047571
 10
2.476001911618996
 20
0.3487095254924424
 10
2.477772261495025
 20
0.3464284551799985
 10
2.479632413763008
 20
0.3442200045933235
 10
2.481579392576128
 20
0.3420877067822448
 10
2.483610083183616
 20
0.340034972968394
 10
2.485721236913692
 20
0.3380650870879798
 10
2.487909476370744
 20
0.3361812005381919
 10
2.490171300838439
 20
0.3343863271356349
 10
2.492503091880125
 20
0.3326833382948671
 10
2.494901119127559
 20
0.331074958434749
 10
2.497361546248697
 20
0.3295637606199535
 10
2.499880437085006
 20
0.3281521624446135
 10
2.502453761948485
 20
0.3268424221646839
 10
2.505077404068298
 20
0.3256366350852167
 10
2.507747166176735
 20
0.3245367302083177
 10
2.51045877722394
 20
0.3235444671471566
 10
2.513207899210684
 20
0.3226614333109594
 10
2.515990134128236
 20
0.3218890413654938
 10
2.518801030994241
 20
0.3212285269731043
 10
2.521636092973338
 20
0.3206809468159162
 10
2.524490784571143
 20
0.3202471769053701
 10
2.527360538890066
 20
0.3199279111807911
 10
2.52886839096407
 20
0.3198065410422957
1001
REVIT
1002
{
1070
     2
1000
-2001160
1002
}
  0
LWPOLYLINE
  5
133
330
114
100
AcDbEntity
  8
T722.430
100
AcDbPolyline
 90
       38
 70
   128
 43
0.0
 10
2.528868390964061
 20
-0.3198065410423663
 10
2.525992577013279
 20
-0.3200656058496194
 10
2.523129423236073
 20
-0.3204394653177953
 10
2.520283510067715
 20
-0.3209275213514975
 10
2.517459390362177
 20
-0.3215289931651843
 10
2.514661582108542
 20
-0.3222429185322624
 10
2.51189456120318
 20
-0.3230681553244388
 10
2.509162754289275
 20
-0.3240033833388882
 10
2.506470531675134
 20
-0.3250471064102922
 10
2.503822200342631
 20
-0.3261976548043848
 10
2.50122199705695
 20
-0.3274531878891731
 10
2.498674081588666
 20
-0.3288116970795545
 10
2.496182530059003
 20
-0.3302710090506242
 10
2.493751328418908
 20
-0.3318287892145313
 10
2.491384366072372
 20
-0.3334825454553225
 10
2.489085429654229
 20
-0.3352296321157953
 10
2.486858196972332
 20
-0.3370672542299844
 10
2.484706231123854
 20
-0.3389924719945128
 10
2.482632974795092
 20
-0.3410022054716482
 10
2.480641744753901
 20
-0.3430932395165469
 10
2.478735726543573
 20
-0.3452622289208018
 10
2.47691796938665
 20
-0.3475057037640576
 10
2.475191381306815
 20
-0.3498200749651492
 10
2.473558724476677
 20
-0.3522016400238601
 10
2.472022610798882
 20
-0.3546465889441359
 10
2.470585497727628
 20
-0.3571510103292668
 10
2.469249684337261
 20
-0.3597108976392838
 10
2.468017307644247
 20
-0.3623221556005711
 10
2.466890339188404
 20
-0.3649806067574295
 10
2.465870581878851
 20
-0.3676819981551143
 10
2.464959667109749
 20
-0.3704220081436542
 10
2.46415905215041
 20
-0.3731962532915731
 10
2.46347001781398
 20
-0.3760002953984411
 10
2.46289366640841
 20
-0.3788296485950509
 10
2.462430919973002
 20
-0.3816797865198518
 10
2.462082518803337
 20
-0.3845461495601601
 10
2.461849020266968
 20
-0.3874241521465698
 10
2.46173079791174
 20
-0.3903091900888844
1001
REVIT
1002
{
1070
     2
1000
-2001160
1002
}
  0
LINE
  5
134
330
114
100
AcDbEntity
  8
T722.430
100
AcDbLine
 10
2.736947274013656
 20
-2.750000000000071
 30
0.0
 11
2.908901881576293
 21
-0.345193841421856
 31
0.0
1001
REVIT
1002
{
1070
     2
1000
-2001160
1002
}
  0
LINE
  5
135
330
114
100
AcDbEntity
  8
T722.430
100
AcDbLine
 10
3.484561481463872
 20
-0.3299564439543181
 30
0.0
 11
3.48828125000246
 21
-2.75000000000008
 31
0.0
1001
REVIT
1002
{
1070
     2
1000
-2001160
1002
}
  0
LINE
  5
136
330
114
100
AcDbEntity
  8
T722.430
100
AcDbLine
 10
0.2701195049576635
 20
-1.123574345318925
 30
0.0
 11
0.2701195049576949
 21
1.123574345318918
 31
0.0
1001
REVIT
1002
{
1070
     2
1000
-2001160
1002
}
  0
SPLINE
  5
137
330
114
100
AcDbEntity
  8
T722.430
100
AcDbSpline
210
0.0
220
0.0
230
1.0
 70
     8
 71
     3
 72
    22
 73
    18
 74
     0
 42
0.000000001
 43
0.0000000001
 40
0.0
 40
0.0
 40
0.0
 40
0.0
 40
0.1428571428571428
 40
0.2142857142857143
 40
0.2857142857142857
 40
0.4285714285714286
 40
0.5
 40
0.5714285714285714
 40
0.625
 40
0.6785714285714287
 40
0.7053571428571429
 40
0.7321428571428572
 40
0.7857142857142857
 40
0.8392857142857142
 40
0.8660714285714284
 40
0.8928571428571427
 40
1.0
 40
1.0
 40
1.0
 40
1.0
 10
2.90890188157629
 20
-0.3451938414218552
 30
0.0
 10
2.909135829421932
 20
-0.3452319227058328
 30
0.0
 10
2.913357450850364
 20
-0.3421586070112133
 30
0.0
 10
2.927664297853812
 20
-0.3330262067344237
 30
0.0
 10
2.946754060333192
 20
-0.3209728219848367
 30
0.0
 10
2.972478900773533
 20
-0.3057171441522675
 30
0.0
 10
3.003375702838089
 20
-0.2891799079892157
 30
0.0
 10
3.026987516862706
 20
-0.277895603375516
 30
0.0
 10
3.050116791645933
 20
-0.2681011988256992
 30
0.0
 10
3.068615437062287
 20
-0.2611911594304659
 30
0.0
 10
3.083954805912054
 20
-0.2563609510528274
 30
0.0
 10
3.099659331467187
 20
-0.2520904022977162
 30
0.0
 10
3.120329228244104
 20
-0.2473980272365678
 30
0.0
 10
3.141694729863185
 20
-0.2442581690508789
 30
0.0
 10
3.158801443822455
 20
-0.2430900079571581
 30
0.0
 10
3.18468235952418
 20
-0.242548991745114
 30
0.0
 10
3.206793380160575
 20
-0.2446208527556009
 30
0.0
 10
3.224821134859646
 20
-0.2479401385226558
 30
0.0
1001
REVIT
1002
{
1070
     2
1000
-2001160
1002
}
  0
SPLINE
  5
138
330
114
100
AcDbEntity
  8
T722.430
100
AcDbSpline
210
0.0
220
0.0
230
1.0
 70
     8
 71
     3
 72
     9
 73
     5
 74
     0
 42
0.000000001
 43
0.0000000001
 40
0.0
 40
0.0
 40
0.0
 40
0.0
 40
0.5
 40
1.0
 40
1.0
 40
1.0
 40
1.0
 10
3.224821134859646
 20
-0.2479401385226558
 30
0.0
 10
3.259879889815908
 20
-0.2548020272121101
 30
0.0
 10
3.329341598564055
 20
-0.2700048284178051
 30
0.0
 10
3.397447394365888
 20
-0.2875688707247011
 30
0.0
 10
3.431151380535463
 20
-0.2966728461384851
 30
0.0
1001
REVIT
1002
{
1070
     2
1000
-2001160
1002
}
  0
SPLINE
  5
139
330
114
100
AcDbEntity
  8
T722.430
100
AcDbSpline
210
0.0
220
0.0
230
1.0
 70
     8
 71
     3
 72
     9
 73
     5
 74
     0
 42
0.000000001
 43
0.0000000001
 40
0.0
 40
0.0
 40
0.0
 40
0.0
 40
0.5
 40
1.0
 40
1.0
 40
1.0
 40
1.0
 10
3.431151380535492
 20
-0.2966728461384922
 30
0.0
 10
3.435141591153494
 20
-0.2977661812544197
 30
0.0
 10
3.443289462332769
 20
-0.2984275889290731
 30
0.0
 10
3.451082320208148
 20
-0.2959551677858636
 30
0.0
 10
3.454702393080179
 20
-0.2939648591895439
 30
0.0
1001
REVIT
1002
{
1070
     2
1000
-2001160
1002
}
  0
SPLINE
  5
13A
330
114
100
AcDbEntity
  8
T722.430
100
AcDbSpline
210
0.0
220
0.0
230
1.0
 70
     8
 71
     3
 72
    11
 73
     7
 74
     0
 42
0.000000001
 43
0.0000000001
 40
0.0
 40
0.0
 40
0.0
 40
0.0
 40
0.25
 40
0.5
 40
0.75
 40
1.0
 40
1.0
 40
1.0
 40
1.0
 10
3.45470239308018
 20
-0.2939648591895439
 30
0.0
 10
3.456880437587732
 20
-0.2927935905268315
 30
0.0
 10
3.461005361781765
 20
-0.2901706349500888
 30
0.0
 10
3.466316759121995
 20
-0.2857174658164061
 30
0.0
 10
3.470521641421406
 20
-0.2805050257856454
 30
0.0
 10
3.472488579321566
 20
-0.2764117569810383
 30
0.0
 10
3.473255526651811
 20
-0.2742789391407017
 30
0.0
1001
REVIT
1002
{
1070
     2
1000
-2001160
1002
}
  0
SPLINE
  5
13B
330
114
100
AcDbEntity
  8
T722.430
100
AcDbSpline
210
0.0
220
0.0
230
1.0
 70
     8
 71
     3
 72
    10
 73
     6
 74
     0
 42
0.000000001
 43
0.0000000001
 40
0.0
 40
0.0
 40
0.0
 40
0.0
 40
0.2916666666666666
 40
0.5833333333333333
 40
1.0
 40
1.0
 40
1.0
 40
1.0
 10
3.473255526651809
 20
-0.2742789391407046
 30
0.0
 10
3.473972863372381
 20
-0.2720645770595431
 30
0.0
 10
3.475328441466885
 20
-0.2683103374533835
 30
0.0
 10
3.477986461329949
 20
-0.2610117034156125
 30
0.0
 10
3.47898393727837
 20
-0.2610451986095517
 30
0.0
 10
3.479341769678966
 20
-0.2625778383019072
 30
0.0
1001
REVIT
1002
{
1070
     2
1000
-2001160
1002
}
  0
SPLINE
  5
13C
330
114
100
AcDbEntity
  8
T722.430
100
AcDbSpline
210
0.0
220
0.0
230
1.0
 70
     8
 71
     3
 72
     9
 73
     5
 74
     0
 42
0.000000001
 43
0.0000000001
 40
0.0
 40
0.0
 40
0.0
 40
0.0
 40
0.5
 40
0.9998545420304665
 40
0.9998545420304665
 40
0.9998545420304665
 40
0.9998545420304665
 10
3.479341769678966
 20
-0.2625778383019072
 30
0.0
 10
3.48093813106244
 20
-0.2851776178630785
 30
0.0
 10
3.483292245154383
 20
-0.3198463585582489
 30
0.0
 10
3.484329168664682
 20
-0.3309215959733507
 30
0.0
 10
3.484561278007038
 20
-0.3299568007000815
 30
0.0
1001
REVIT
1002
{
1070
     2
1000
-2001160
1002
}
  0
LINE
  5
13D
330
114
100
AcDbEntity
  8
T722.430
100
AcDbLine
 10
3.488281250002457
 20
-2.750000000000079
 30
0.0
 11
2.742801819434921
 21
-2.750000000000068
 31
0.0
1001
REVIT
1002
{
1070
     2
1000
-2001160
1002
}
  0
ENDBLK
  5
13E
330
114
100
AcDbEntity
  8
0
100
AcDbBlockEnd
  0
BLOCK
  5
14A
330
149
100
AcDbEntity
  8
0
100
AcDbBlockBegin
  2
AMSTD_Estate_T722.430_Front View
 70
     0
 10
0.0
 20
0.0
 30
0.0
  3
AMSTD_Estate_T722.430_Front View
  1

  0
LWPOLYLINE
  5
14B
330
149
100
AcDbEntity
  8
T722.430
100
AcDbPolyline
 90
       74
 70
   128
 43
0.0
 10
0.0000000000002475
 20
1.374999999999668
 10
-0.0549853345063743
 20
1.373900146658513
 10
-0.1098827042073648
 20
1.37060234616577
 10
-0.1646042850220164
 20
1.365111874298734
 10
-0.2190625340943406
 20
1.357437514641155
 10
-0.2731703298429617
 20
1.347591544531375
 10
-0.3268411113370627
 20
1.335589715421208
 10
-0.3799890167754092
 20
1.321451227676978
 10
-0.4325290208469149
 20
1.305198699863024
 10
-0.4843770707530015
 20
1.286858132556828
 10
-0.5354502206741472
 20
1.266458866753635
 10
-0.5856667644655024
 20
1.244033536927117
 10
-0.6349463663692922
 20
1.219618018821183
 10
-0.6832101895348912
 20
1.193251372056436
 10
-0.7303810221409678
 20
1.164975777643115
 10
-0.7763834009179269
 20
1.134836470500475
 10
-0.8211437318730423
 20
1.10288166709057
 10
-0.8645904080251474
 20
1.069162488282193
 10
-0.906653923960529
 20
1.033732877568398
 10
-0.9472669870267617
 20
0.9966495147684121
 10
-0.9863646249865974
 20
0.95797172535202
 10
-1.023884289959685
 20
0.9177613855314664
 10
-1.059765958485836
 20
0.8760828232727151
 10
-1.093952227549757
 20
0.8330027153844287
 10
-1.126388406413626
 20
0.7885899808492951
 10
-1.157022604110611
 20
0.7429156705683593
 10
-1.185805812459344
 20
0.6960528536947374
 10
-1.212691984466556
 20
0.6480765007385596
 10
-1.237638107992448
 20
0.5990633636301462
 10
-1.260604274560933
 20
0.5490918529332923
 10
-1.28155374320469
 20
0.4982419124050929
 10
-1.30045299924287
 20
0.446594891102984
 10
-1.317271807897438
 20
0.3942334132436051
 10
-1.331983262662368
 20
0.3412412460216791
 10
-1.344563828348313
 20
0.2877031656003677
 10
-1.354993378733886
 20
0.2337048214874973
 10
-1.363255228763322
 20
0.179332599514616
 10
-1.369336161239009
 20
0.1246734836380915
 10
-1.37322644796618
 20
0.0698149167833372
 10
-1.374919865315957
 20
0.0148446609547831
 10
-1.374413704181823
 20
-0.0401493431646065
 10
-1.371708774313617
 20
-0.0950791168996702
 10
-1.366809403022108
 20
-0.1498567843301578
 10
-1.359723428256218
 20
-0.2043947128734599
 10
-1.350462186063979
 20
-0.2586056534780455
 10
-1.339040492457271
 20
-0.3124028802033297
 10
-1.325476619709369
 20
-0.365700328962683
 10
-1.309792267123196
 20
-0.418412735207606
 10
-1.292012526317075
 20
-0.4704557703328207
 10
-1.272165841083484
 20
-0.521746176584048
 10
-1.250283961885065
 20
-0.5722019002526561
 10
-1.22640189506065
 20
-0.6217422229440892
 10
-1.200557846822588
 20
-0.6702878907100796
 10
-1.172793162134957
 20
-0.7177612408380582
 10
-1.143152258570442
 20
-0.7640863260949282
 10
-1.111682555251689
 20
-0.809189036226436
 10
-1.07843439699083
 20
-0.8529972165177701
 10
-1.04346097374852
 20
-0.8954407832257111
 10
-1.006818235541347
 20
-0.9364518356976708
 10
-0.9685648029337446
 20
-0.9759647649982513
 10
-0.9287618732575847
 20
-1.013916358869548
 10
-0.8874731227095114
 20
-1.050245902857275
 10
-0.8447646044826054
 20
-1.084895277440941
 10
-0.8007046430953643
 20
-1.117809051012684
 10
-0.7553637250870507
 20
-1.148934568556021
 10
-0.708814386254265
 20
-1.178222035882638
 10
-0.661131095609143
 20
-1.205624599292473
 10
-0.6123901362448243
 20
-1.231098420529637
 10
-0.5626694832987751
 20
-1.254602746914277
 10
-0.5120486792092023
 20
-1.276099976538168
 10
-0.46060870646412
 20
-1.29555571841974
 10
-0.408431858046645
 20
-1.312938847522322
 10
-0.3556016057837777
 20
-1.32822155454755
 10
-0.3296374701903008
 20
-1.334619257607603
1001
REVIT
1002
{
1070
     2
1000
-2001160
1002
}
  0
LWPOLYLINE
  5
14C
330
149
100
AcDbEntity
  8
T722.430
100
AcDbPolyline
 90
       74
 70
   128
 43
0.0
 10
0.3296446229052128
 20
-1.334843920952401
 10
0.3799890167759005
 20
-1.321451227677646
 10
0.4325290208474065
 20
-1.305198699863692
 10
0.4843770707534934
 20
-1.286858132557497
 10
0.5354502206746391
 20
-1.266458866754303
 10
0.5856667644659944
 20
-1.244033536927786
 10
0.6349463663697842
 20
-1.219618018821853
 10
0.683210189535383
 20
-1.193251372057105
 10
0.7303810221414601
 20
-1.164975777643784
 10
0.7763834009184194
 20
-1.134836470501144
 10
0.8211437318735351
 20
-1.102881667091239
 10
0.8645904080256404
 20
-1.069162488282863
 10
0.9066539239610216
 20
-1.033732877569067
 10
0.9472669870272543
 20
-0.9966495147690819
 10
0.9863646249870905
 20
-0.9579717253526894
 10
1.023884289960178
 20
-0.9177613855321357
 10
1.059765958486329
 20
-0.8760828232733853
 10
1.09395222755025
 20
-0.8330027153850995
 10
1.126388406414119
 20
-0.7885899808499657
 10
1.157022604111104
 20
-0.7429156705690298
 10
1.185805812459837
 20
-0.6960528536954078
 10
1.21269198446705
 20
-0.6480765007392302
 10
1.237638107992941
 20
-0.5990633636308168
 10
1.260604274561427
 20
-0.5490918529339633
 10
1.281553743205184
 20
-0.4982419124057641
 10
1.300452999243364
 20
-0.4465948911036548
 10
1.317271807897933
 20
-0.3942334132442762
 10
1.331983262662863
 20
-0.3412412460223502
 10
1.344563828348809
 20
-0.2877031656010389
 10
1.354993378734381
 20
-0.2337048214881686
 10
1.363255228763818
 20
-0.1793325995152871
 10
1.369336161239504
 20
-0.1246734836387628
 10
1.373226447966676
 20
-0.0698149167840083
 10
1.374919865316453
 20
-0.0148446609554546
 10
1.374413704182319
 20
0.0401493431639354
 10
1.371708774314113
 20
0.0950791168989989
 10
1.366809403022604
 20
0.1498567843294867
 10
1.359723428256714
 20
0.2043947128727887
 10
1.350462186064475
 20
0.258605653477374
 10
1.339040492457768
 20
0.3124028802026587
 10
1.325476619709866
 20
0.3657003289620122
 10
1.309792267123694
 20
0.418412735206935
 10
1.292012526317572
 20
0.4704557703321497
 10
1.272165841083981
 20
0.521746176583377
 10
1.250283961885562
 20
0.5722019002519855
 10
1.226401895061147
 20
0.6217422229434188
 10
1.200557846823085
 20
0.6702878907094094
 10
1.172793162135455
 20
0.7177612408373879
 10
1.143152258570939
 20
0.7640863260942578
 10
1.111682555252187
 20
0.8091890362257659
 10
1.078434396991328
 20
0.8529972165171002
 10
1.043460973749018
 20
0.8954407832250412
 10
1.006818235541846
 20
0.9364518356970007
 10
0.9685648029342427
 20
0.975964764997582
 10
0.9287618732580831
 20
1.013916358868878
 10
0.8874731227100108
 20
1.050245902856606
 10
0.8447646044831039
 20
1.084895277440272
 10
0.8007046430958631
 20
1.117809051012015
 10
0.7553637250875495
 20
1.148934568555352
 10
0.7088143862547636
 20
1.178222035881969
 10
0.6611310956096416
 20
1.205624599291803
 10
0.6123901362453234
 20
1.231098420528968
 10
0.5626694832992741
 20
1.254602746913609
 10
0.5120486792097014
 20
1.276099976537499
 10
0.4606087064646191
 20
1.295555718419072
 10
0.4084318580471443
 20
1.312938847521653
 10
0.355601605784277
 20
1.328221554546883
 10
0.3022024668097854
 20
1.341379390423656
 10
0.2483198683548196
 20
1.352391305421426
 10
0.1940400110825667
 20
1.36123968282528
 10
0.1394497311855769
 20
1.367910367118924
 10
0.0846363614663799
 20
1.372392686630493
 10
0.029687591623631
 20
1.374679470604944
 10
0.0000000000002568
 20
1.374999999999668
1001
REVIT
1002
{
1070
     2
1000
-2001160
1002
}
  0
LWPOLYLINE
  5
14D
330
149
100
AcDbEntity
  8
T722.430
100
AcDbPolyline
 90
       62
 70
   128
 43
0.0
 10
0.0000000000002475
 20
0.3997174369965181
 10
-0.0159844341680119
 20
0.3993977056811737
 10
-0.0319432966514672
 20
0.3984390232370383
 10
-0.0478510566744863
 20
0.3968429233515147
 10
-0.0636822652145067
 20
0.3946119594439366
 10
-0.0794115957150088
 20
0.3917497005806426
 10
-0.0950138846026035
 20
0.3882607257652313
 10
-0.1104641715433811
 20
0.3841506166131325
 10
-0.125737739374122
 20
0.3794259484222127
 10
-0.1408101536444843
 20
0.3740942796537022
 10
-0.1556573017069126
 20
0.368164139840269
 10
-0.1702554312917292
 20
0.3616450159405849
 10
-0.1845811885057003
 20
0.3545473371622174
 10
-0.1986116551932819
 20
0.3468824582771213
 10
-0.2123243856007805
 20
0.3386626414564256
 10
-0.2256974422847708
 20
0.3299010366535759
 10
-0.2387094312073247
 20
0.3206116605672144
 10
-0.2513395359619092
 20
0.3108093742174511
 10
-0.2635675510751956
 20
0.3005098591714031
 10
-0.275373914331507
 20
0.2897295924560312
 10
-0.2867397380681892
 20
0.2784858201984123
 10
-0.2976468393918436
 20
0.266796530035615
 10
-0.3080777692670766
 20
0.2546804223383181
 10
-0.3180158404312343
 20
0.2421568802942048
 10
-0.3274451540904625
 20
0.2292459388989995
 10
-0.3363506253543862
 20
0.2159682529047473
 10
-0.3447180073687159
 20
0.2023450637766171
 10
-0.3525339141071743
 20
0.1883981657110883
 10
-0.3597858417862852
 20
0.1741498707698867
 10
-0.3664621888687572
 20
0.1596229731854432
 10
-0.3725522746234693
 20
0.1448407128949875
 10
-0.3780463562123635
 20
0.1298267383616035
 10
-0.3829356442769054
 20
0.1146050687417339
 10
-0.3872123169991845
 20
0.0992000554596544
 10
-0.3908695326151533
 20
0.0836363432503888
 10
-0.3939014403599907
 20
0.0679388307333902
 10
-0.3963031898280771
 20
0.0521326305800619
 10
-0.39807093873261
 20
0.0362430293388394
 10
-0.3992018590524411
 20
0.0202954469821081
 10
-0.3996941415563097
 20
0.0043153962396694
 10
-0.3995469986972233
 20
-0.0116715582161846
 10
-0.3987606658723685
 20
-0.0276398406686931
 10
-0.3973364010465222
 20
-0.0435639052723168
 10
-0.3952764827395795
 20
-0.0594182769206434
 10
-0.3925842063814056
 20
-0.0751775920011203
 10
-0.3892638790398514
 20
-0.090816638971427
 10
-0.3853208125303651
 20
-0.1063103986925633
 10
-0.3807613149182193
 20
-0.121634084454134
 10
-0.3755926804269522
 20
-0.1367631816277999
 10
-0.3698231777691666
 20
-0.1516734868854508
 10
-0.3634620369183539
 20
-0.1663411469193707
 10
-0.3565194343429038
 20
-0.180742696602439
 10
-0.3490064767259274
 20
-0.1948550965273297
 10
-0.3409351831969336
 20
-0.208655769864647
 10
-0.3323184661037843
 20
-0.2221226384810389
 10
-0.3231701103556936
 20
-0.2352341582594976
 10
-0.3135047513703133
 20
-0.2479693535653523
 10
-0.3033378516601869
 20
-0.2603078508028101
 10
-0.2926856760960273
 20
-0.2722299110083644
 10
-0.2815652658863949
 20
-0.283716461428923
 10
-0.2699944113153967
 20
-0.2947491260341461
 10
-0.2673526349353915
 20
-0.2971474348409337
1001
REVIT
1002
{
1070
     2
1000
-2001160
1002
}
  0
LWPOLYLINE
  5
14E
330
149
100
AcDbEntity
  8
T722.430
100
AcDbPolyline
 90
       62
 70
   128
 43
0.0
 10
0.267352975561455
 20
-0.2971471283694012
 10
0.2790218375160833
 20
-0.2862181748752026
 10
0.2902443240521705
 20
-0.274831333357825
 10
0.3010024815852617
 20
-0.2630048203346331
 10
0.3112790993582546
 20
-0.2507575557036091
 10
0.3210577369749413
 20
-0.2381091324755522
 10
0.3303227507011332
 20
-0.225079785429441
 10
0.3390593184912988
 20
-0.2116903587411031
 10
0.3472534637006759
 20
-0.1979622726369815
 10
0.3548920774449202
 20
-0.1839174891263405
 10
0.3619629395715253
 20
-0.1695784768667366
 10
0.3684547382094588
 20
-0.1549681752189588
 10
0.3743570878657423
 20
-0.1401099575489453
 10
0.379660546040028
 20
-0.1250275938353845
 10
0.38435662833058
 20
-0.1097452126428185
 10
0.3884378220075113
 20
-0.094287262521088
 10
0.3918975980315469
 20
-0.0786784728928678
 10
0.3947304214990949
 20
-0.062943814491865
 10
0.3969317604969103
 20
-0.0471084594149737
 10
0.3984980933521904
 20
-0.0311977408522877
 10
0.3994269142665001
 20
-0.0152371125594016
 10
0.3997167373245146
 20
0.0007478918631681
 10
0.3993670988711662
 20
0.0167316998182982
 10
0.3983785582533951
 20
0.032688740622957
 10
0.3967526969253126
 20
0.0485934864158446
 10
0.3944921159182113
 20
0.0644204929965236
 10
0.3916004316794713
 20
0.0801444405307139
 10
0.3880822702870141
 20
0.0957401740566225
 10
0.383943260048567
 20
0.1111827437275213
 10
0.3791900224975702
 20
0.1264474447261757
 10
0.3738301618001349
 20
0.1415098567872839
 10
0.3678722525900011
 20
0.1563458832646914
 10
0.3613258262509519
 20
0.1709317896808845
 10
0.3542013556686339
 20
0.1852442416970911
 10
0.3465102384761723
 20
0.1992603424432455
 10
0.3382647788203911
 20
0.2129576691480964
 10
0.3294781676778022
 20
0.2263143090108562
 10
0.3201644617518564
 20
0.239308894257009
 10
0.3103385609852167
 20
0.2519206363221913
 10
0.3000161847230307
 20
0.2641293591094604
 10
0.2892138465653271
 20
0.2759155312667452
 10
0.2779488279487832
 20
0.2872602974328435
 10
0.2662391505001088
 20
0.2981455084019769
 10
0.2541035472052914
 20
0.3085537501586497
 10
0.2415614324408117
 20
0.3184683717363574
 10
0.2286328709147842
 20
0.3278735118555826
 10
0.2153385455677045
 20
0.3367541242984568
 10
0.2016997244841569
 20
0.3450960019795014
 10
0.187738226868415
 20
0.3528857996739323
 10
0.1734763881383696
 20
0.3601110553671733
 10
0.1589370241936257
 20
0.3667602101914209
 10
0.1441433949149295
 20
0.3728226269173669
 10
0.1291191669533206
 20
0.3782886069714965
 10
0.1138883758685404
 20
0.3831494059517364
 10
0.0984753876772616
 20
0.387397247616634
 10
0.0829048598726622
 20
0.3910253363256828
 10
0.0672017019776937
 20
0.3940278679108994
 10
0.0513910356951599
 20
0.3964000389622535
 10
0.0354981547183506
 20
0.3981380545120991
 10
0.0195484842665285
 20
0.3992391341063128
 10
0.0035675404100007
 20
0.399701516252429
 10
0.0000000000002844
 20
0.3997174369965188
1001
REVIT
1002
{
1070
     2
1000
-2001160
1002
}
  0
LINE
  5
14F
330
149
100
AcDbEntity
  8
T722.430
100
AcDbLine
 10
-0.3747908144506808
 20
-2.750000000000409
 30
0.0
 11
-0.2960073777519868
 21
-0.2685122172012435
 31
0.0
1001
REVIT
1002
{
1070
     2
1000
-2001160
1002
}
  0
LINE
  5
150
330
149
100
AcDbEntity
  8
T722.430
100
AcDbLine
 10
0.29600687934565
 20
-0.2684965185890719
 30
0.0
 11
0.374790814444978
 21
-2.749999999803446
 31
0.0
1001
REVIT
1002
{
1070
     2
1000
-2001160
1002
}
  0
ARC
  5
151
330
149
100
AcDbEntity
  8
T722.430
100
AcDbCircle
 10
0.0000000000002494
 20
-0.0000000000003356
 30
0.0
 40
1.123574345318922
100
AcDbArc
 50
286.6994955844825
 51
253.3006702184567
1001
REVIT
1002
{
1070
     2
1000
-2001160
1002
}
  0
SPLINE
  5
152
330
149
100
AcDbEntity
  8
T722.430
100
AcDbSpline
210
0.0
220
0.0
230
1.0
 70
     8
 71
     3
 72
     9
 73
     5
 74
     0
 42
0.000000001
 43
0.0000000001
 40
0.0
 40
0.0
 40
0.0
 40
0.0
 40
0.5
 40
1.0
 40
1.0
 40
1.0
 40
1.0
 10
-0.267811138227702
 20
-0.2966728461388236
 30
0.0
 10
-0.2668771645062982
 20
-0.297766181254751
 30
0.0
 10
-0.2649820678460997
 20
-0.2984275889294043
 30
0.0
 10
-0.2629999330995395
 20
-0.2959551677861949
 30
0.0
 10
-0.2619881806413451
 20
-0.2939648591898752
 30
0.0
1001
REVIT
1002
{
1070
     2
1000
-2001160
1002
}
  0
SPLINE
  5
153
330
149
100
AcDbEntity
  8
T722.430
100
AcDbSpline
210
0.0
220
0.0
230
1.0
 70
     8
 71
     3
 72
    11
 73
     7
 74
     0
 42
0.000000001
 43
0.0000000001
 40
0.0
 40
0.0
 40
0.0
 40
0.0
 40
0.25
 40
0.5
 40
0.75
 40
1.0
 40
1.0
 40
1.0
 40
1.0
 10
-0.2619881806413451
 20
-0.2939648591898752
 30
0.0
 10
-0.2613500365992156
 20
-0.2927935905271628
 30
0.0
 10
-0.2597935048041853
 20
-0.29017063495042
 30
0.0
 10
-0.2564188696400622
 20
-0.2857174658167375
 30
0.0
 10
-0.2526059919222479
 20
-0.2805050257859767
 30
0.0
 10
-0.2501754216989981
 20
-0.2764117569813696
 30
0.0
 10
-0.2489613629390397
 20
-0.2742789391410331
 30
0.0
1001
REVIT
1002
{
1070
     2
1000
-2001160
1002
}
  0
SPLINE
  5
154
330
149
100
AcDbEntity
  8
T722.430
100
AcDbSpline
210
0.0
220
0.0
230
1.0
 70
     8
 71
     3
 72
    11
 73
     7
 74
     0
 42
0.000000001
 43
0.0000000001
 40
0.0
 40
0.0
 40
0.0
 40
0.0
 40
0.25
 40
0.5
 40
0.75
 40
1.0
 40
1.0
 40
1.0
 40
1.0
 10
0.2489653189780108
 20
-0.274275348216447
 30
0.0
 10
0.2501788755440965
 20
-0.2764071738706836
 30
0.0
 10
0.2526083312239794
 20
-0.2804987005499371
 30
0.0
 10
0.2564191160122698
 20
-0.2857097630142046
 30
0.0
 10
0.2597917904900505
 20
-0.2901626690757984
 30
0.0
 10
0.2613474811641343
 20
-0.2927860531389288
 30
0.0
 10
0.2619852992626443
 20
-0.2939577486325823
 30
0.0
1001
REVIT
1002
{
1070
     2
1000
-2001160
1002
}
  0
SPLINE
  5
155
330
149
100
AcDbEntity
  8
T722.430
100
AcDbSpline
210
0.0
220
0.0
230
1.0
 70
     8
 71
     3
 72
     9
 73
     5
 74
     0
 42
0.000000001
 43
0.0000000001
 40
0.0
 40
0.0
 40
0.0
 40
0.0
 40
0.5
 40
1.0
 40
1.0
 40
1.0
 40
1.0
 10
0.2619852992626443
 20
-0.2939577486325824
 30
0.0
 10
0.2629975825673176
 20
-0.295950904436258
 30
0.0
 10
0.2649807987317119
 20
-0.2984274151807102
 30
0.0
 10
0.2668769693510434
 20
-0.2977664996541818
 30
0.0
 10
0.2678114880925717
 20
-0.2966725303105626
 30
0.0
1001
REVIT
1002
{
1070
     2
1000
-2001160
1002
}
  0
SPLINE
  5
156
330
149
100
AcDbEntity
  8
T722.430
100
AcDbSpline
210
0.0
220
0.0
230
1.0
 70
     8
 71
     3
 72
    10
 73
     6
 74
     0
 42
0.000000001
 43
0.0000000001
 40
0.0
 40
0.0
 40
0.0
 40
0.0
 40
0.2916666666666666
 40
0.5833333333333333
 40
1.0
 40
1.0
 40
1.0
 40
1.0
 10
-0.2489613629390416
 20
-0.2742789391410359
 30
0.0
 10
-0.2480676661548862
 20
-0.2720645770598745
 30
0.0
 10
-0.2457843253023123
 20
-0.2683103374537147
 30
0.0
 10
-0.2405565571751839
 20
-0.2610117034159438
 30
0.0
 10
-0.2352396166281597
 20
-0.261045198609883
 30
0.0
 10
-0.231562753416133
 20
-0.2625778383022385
 30
0.0
1001
REVIT
1002
{
1070
     2
1000
-2001160
1002
}
  0
SPLINE
  5
157
330
149
100
AcDbEntity
  8
T722.430
100
AcDbSpline
210
0.0
220
0.0
230
1.0
 70
     8
 71
     3
 72
     9
 73
     5
 74
     0
 42
0.000000001
 43
0.0000000001
 40
0.0
 40
0.0
 40
0.0
 40
0.0
 40
0.5
 40
1.0
 40
1.0
 40
1.0
 40
1.0
 10
-0.231562753416133
 20
-0.2625778383022385
 30
0.0
 10
-0.1972859845236613
 20
-0.2851776178634097
 30
0.0
 10
-0.1227560521130632
 20
-0.3198514021368367
 30
0.0
 10
-0.0411709859744577
 20
-0.3309248179061663
 30
0.0
 10
0.0000000000002813
 20
-0.3299559567807051
 30
0.0
1001
REVIT
1002
{
1070
     2
1000
-2001160
1002
}
  0
SPLINE
  5
158
330
149
100
AcDbEntity
  8
T722.430
100
AcDbSpline
210
0.0
220
0.0
230
1.0
 70
     8
 71
     3
 72
     9
 73
     5
 74
     0
 42
0.000000001
 43
0.0000000001
 40
0.0
 40
0.0
 40
0.0
 40
0.0
 40
0.5
 40
1.0
 40
1.0
 40
1.0
 40
1.0
 10
0.0000000000002813
 20
-0.329955956780702
 30
0.0
 10
0.041171839693037
 20
-0.3309284697553026
 30
0.0
 10
0.1227610628912541
 20
-0.3198591341759172
 30
0.0
 10
0.1972937413552882
 20
-0.2851829128440458
 30
0.0
 10
0.2315704082657471
 20
-0.2625811947227985
 30
0.0
1001
REVIT
1002
{
1070
     2
1000
-2001160
1002
}
  0
SPLINE
  5
159
330
149
100
AcDbEntity
  8
T722.430
100
AcDbSpline
210
0.0
220
0.0
230
1.0
 70
     8
 71
     3
 72
    10
 73
     6
 74
     0
 42
0.000000001
 43
0.0000000001
 40
0.0
 40
0.0
 40
0.0
 40
0.0
 40
0.2916666666666666
 40
0.5833333333333333
 40
1.0
 40
1.0
 40
1.0
 40
1.0
 10
0.2315704082657471
 20
-0.2625811947227985
 30
0.0
 10
0.2341433201626173
 20
-0.2615076625074763
 30
0.0
 10
0.238766812564129
 20
-0.26056763956494
 30
0.0
 10
0.2447074890393576
 20
-0.2664253484736322
 30
0.0
 10
0.2476888054739729
 20
-0.2711128829649416
 30
0.0
 10
0.248965318978012
 20
-0.2742753482164504
 30
0.0
1001
REVIT
1002
{
1070
     2
1000
-2001160
1002
}
  0
LINE
  5
15A
330
149
100
AcDbEntity
  8
T722.430
100
AcDbLine
 10
0.3747908144512372
 20
-2.750000000000405
 30
0.0
 11
-0.3747908144506804
 21
-2.750000000000405
 31
0.0
1001
REVIT
1002
{
1070
     2
1000
-2001160
1002
}
  0
ENDBLK
  5
15B
330
149
100
AcDbEntity
  8
0
100
AcDbBlockEnd
  0
ENDSEC
  0
SECTION
  2
ENTITIES
  0
INSERT
  5
113
330
70
100
AcDbEntity
  8
T722.430
100
AcDbBlockReference
  2
AMSTD_Estate_T722.430_Plan View
 10
0.4299527307902675
 20
2.760987540241004
 30
0.0
  0
INSERT
  5
148
330
70
100
AcDbEntity
  8
T722.430
100
AcDbBlockReference
  2
AMSTD_Estate_T722.430_Side View
 10
-6.80697763305184
 20
-3.362049030009006
 30
0.0
  0
INSERT
  5
165
330
70
100
AcDbEntity
  8
T722.430
100
AcDbBlockReference
  2
AMSTD_Estate_T722.430_Front View
 10
0.4299527307900178
 20
-3.362049030008671
 30
0.0
  0
ENDSEC
  0
SECTION
  2
OBJECTS
  0
DICTIONARY
  5
C
330
0
100
AcDbDictionary
281
     1
  3
ACAD_CIP_PREVIOUS_PRODUCT_INFO
350
79
  3
ACAD_COLOR
350
63
  3
ACAD_DETAILVIEWSTYLE
350
6A
  3
ACAD_GROUP
350
D
  3
ACAD_IMAGE_VARS
350
7A
  3
ACAD_LAYOUT
350
62
  3
ACAD_MATERIAL
350
10
  3
ACAD_MLEADERSTYLE
350
66
  3
ACAD_MLINESTYLE
350
5F
  3
ACAD_PLOTSETTINGS
350
61
  3
ACAD_PLOTSTYLENAME
350
E
  3
ACAD_SCALELIST
350
42
  3
ACAD_SECTIONVIEWSTYLE
350
68
  3
ACAD_TABLESTYLE
350
64
  3
ACAD_VISUALSTYLE
350
29
  3
ACDB_RECOMPOSE_DATA
350
177
  3
AcDbVariableDictionary
350
DD
  3
AEC_PROPERTY_SET_DEFS
350
146
  3
REVIT_DICTIONARY
350
D3
  0
DICTIONARY
  5
15C
330
2
100
AcDbDictionary
280
     1
281
     1
  3
ACAD_LAYERSTATES
360
15D
  0
DICTIONARY
  5
D6
330
70
100
AcDbDictionary
280
     1
281
     1
  3
ACAD_SORTENTS
360
D7
  0
XRECORD
  5
79
102
{ACAD_REACTORS
330
C
102
}
330
C
100
AcDbXrecord
280
     1
300
ARCHDESK
300
2014
300
86137ARCHDESK_2014_0F
  0
DICTIONARY
  5
63
102
{ACAD_REACTORS
330
C
102
}
330
C
100
AcDbDictionary
281
     1
  0
DICTIONARY
  5
6A
102
{ACAD_REACTORS
330
C
102
}
330
C
100
AcDbDictionary
281
     1
  3
Imperial24
350
6B
  0
DICTIONARY
  5
D
102
{ACAD_REACTORS
330
C
102
}
330
C
100
AcDbDictionary
281
     1
  0
RASTERVARIABLES
  5
7A
102
{ACAD_REACTORS
330
C
102
}
330
C
100
AcDbRasterVariables
 90
        0
 70
     0
 71
     1
 72
     5
  0
DICTIONARY
  5
62
102
{ACAD_REACTORS
330
C
102
}
330
C
100
AcDbDictionary
281
     1
  3
Layout1
350
6F
  3
Layout2
350
77
  3
Model
350
73
  0
DICTIONARY
  5
10
102
{ACAD_REACTORS
330
C
102
}
330
C
100
AcDbDictionary
281
     1
  3
ByBlock
350
19
  3
ByLayer
350
11
  3
Global
350
21
  0
DICTIONARY
  5
66
102
{ACAD_REACTORS
330
C
102
}
330
C
100
AcDbDictionary
281
     1
  3
Standard
350
67
  0
DICTIONARY
  5
5F
102
{ACAD_REACTORS
330
C
102
}
330
C
100
AcDbDictionary
281
     1
  3
Standard
350
60
  0
DICTIONARY
  5
61
102
{ACAD_REACTORS
330
C
102
}
330
C
100
AcDbDictionary
281
     1
  0
ACDBDICTIONARYWDFLT
  5
E
102
{ACAD_REACTORS
330
C
102
}
330
C
100
AcDbDictionary
281
     1
  3
Normal
350
F
100
AcDbDictionaryWithDefault
340
F
  0
DICTIONARY
  5
42
102
{ACAD_REACTORS
330
C
102
}
330
C
100
AcDbDictionary
281
     1
  3
A0
350
43
  3
A1
350
44
  3
A2
350
45
  3
A3
350
46
  3
A4
350
47
  3
A5
350
48
  3
A6
350
49
  3
A7
350
4A
  3
A8
350
4B
  3
A9
350
4C
  3
B0
350
4D
  3
B1
350
4E
  3
B2
350
4F
  3
B3
350
50
  3
B4
350
51
  3
B5
350
52
  3
B6
350
53
  0
DICTIONARY
  5
68
102
{ACAD_REACTORS
330
C
102
}
330
C
100
AcDbDictionary
281
     1
  3
Imperial24
350
69
  0
DICTIONARY
  5
64
102
{ACAD_REACTORS
330
C
102
}
330
C
100
AcDbDictionary
281
     1
  3
Standard
350
65
  0
DICTIONARY
  5
29
102
{ACAD_REACTORS
330
C
102
}
330
C
100
AcDbDictionary
281
     1
  3
2dWireframe
350
2F
  3
Basic
350
2E
  3
Brighten
350
35
  3
ColorChange
350
39
  3
Conceptual
350
32
  3
Dim
350
34
  3
EdgeColorOff
350
41
  3
Facepattern
350
38
  3
Flat
350
2A
  3
FlatWithEdges
350
2B
  3
Gouraud
350
2C
  3
GouraudWithEdges
350
2D
  3
Hidden
350
31
  3
JitterOff
350
3F
  3
Linepattern
350
37
  3
OverhangOff
350
40
  3
Realistic
350
33
  3
Shaded
350
3E
  3
Shaded with edges
350
3D
  3
Shades of Gray
350
3A
  3
Sketchy
350
3B
  3
Thicken
350
36
  3
Wireframe
350
30
  3
X-Ray
350
3C
  0
XRECORD
  5
177
102
{ACAD_REACTORS
330
C
102
}
330
C
100
AcDbXrecord
280
     1
 90
        1
330
65
330
69
330
6B
  0
DICTIONARY
  5
DD
102
{ACAD_REACTORS
330
C
102
}
330
C
100
AcDbDictionary
281
     1
  3
CANNOSCALE
350
E2
  3
CMLEADERSTYLE
350
DF
  3
CTABLESTYLE
350
DE
  3
CVIEWDETAILSTYLE
350
E0
  3
CVIEWSECTIONSTYLE
350
E1
  0
DICTIONARY
  5
146
102
{ACAD_REACTORS
330
C
102
}
330
C
100
AcDbDictionary
281
     1
  0
DICTIONARY
  5
D3
102
{ACAD_REACTORS
330
C
102
}
330
C
100
AcDbDictionary
281
     1
  3
DRAWING_TOOL
350
D5
  3
REVIT_CATEGORY_MAPPING
350
D4
  0
DICTIONARY
  5
15D
102
{ACAD_REACTORS
330
15C
102
}
330
15C
100
AcDbDictionary
281
     1
  0
SORTENTSTABLE
  5
D7
102
{ACAD_REACTORS
330
D6
102
}
330
D6
100
AcDbSortentsTable
330
70
  0
ACDBDETAILVIEWSTYLE
  5
6B
102
{ACAD_XDICTIONARY
360
DA
102
}
102
{ACAD_REACTORS
330
6A
102
}
330
6A
100
AcDbModelDocViewStyle
 70
     0
  3
Imperial24
290
     0
100
AcDbDetailViewStyle
 70
     0
 71
     0
 90
        3
 71
     1
340
55
 62
   256
 40
0.24
340
0
 62
   256
 40
0.24
300

 40
0.36
280
     3
 71
     2
340
5D
 90
       25
 62
   256
 71
     3
340
55
 62
   256
 40
0.24
 90
        1
 40
0.75
 90
        1
300
%<\AcVar ViewType \f "%tc1">% %<\AcVar ViewDetailId>%\PSCALE %<\AcVar ViewScale \f "%sn">%
 71
     4
340
5D
 90
       25
 62
   256
340
5D
 90
       25
 62
   256
280
     0
  0
LAYOUT
  5
6F
102
{ACAD_REACTORS
330
62
102
}
330
62
100
AcDbPlotSettings
  1

  2

  4

  6

 40
0.0
 41
0.0
 42
0.0
 43
0.0
 44
0.0
 45
0.0
 46
0.0
 47
0.0
 48
0.0
 49
0.0
140
0.0
141
0.0
142
1.0
143
1.0
 70
   688
 72
     0
 73
     0
 74
     5
  7

 75
    16
147
1.0
 76
     0
 77
     2
 78
   300
148
0.0
149
0.0
100
AcDbLayout
  1
Layout1
 70
     1
 71
     1
 10
0.0
 20
0.0
 11
12.0
 21
9.0
 12
0.0
 22
0.0
 32
0.0
 14
1.000000000000000E+20
 24
1.000000000000000E+20
 34
1.000000000000000E+20
 15
-1.000000000000000E+20
 25
-1.000000000000000E+20
 35
-1.000000000000000E+20
146
0.0
 13
0.0
 23
0.0
 33
0.0
 16
1.0
 26
0.0
 36
0.0
 17
0.0
 27
1.0
 37
0.0
 76
     0
330
6C
  0
LAYOUT
  5
77
102
{ACAD_REACTORS
330
62
102
}
330
62
100
AcDbPlotSettings
  1

  2

  4

  6

 40
0.0
 41
0.0
 42
0.0
 43
0.0
 44
0.0
 45
0.0
 46
0.0
 47
0.0
 48
0.0
 49
0.0
140
0.0
141
0.0
142
1.0
143
1.0
 70
   688
 72
     0
 73
     0
 74
     5
  7

 75
    16
147
1.0
 76
     0
 77
     2
 78
   300
148
0.0
149
0.0
100
AcDbLayout
  1
Layout2
 70
     1
 71
     2
 10
0.0
 20
0.0
 11
12.0
 21
9.0
 12
0.0
 22
0.0
 32
0.0
 14
0.0
 24
0.0
 34
0.0
 15
0.0
 25
0.0
 35
0.0
146
0.0
 13
0.0
 23
0.0
 33
0.0
 16
1.0
 26
0.0
 36
0.0
 17
0.0
 27
1.0
 37
0.0
 76
     0
330
74
  0
LAYOUT
  5
73
102
{ACAD_REACTORS
330
62
102
}
330
62
100
AcDbPlotSettings
  1

  2

  4

  6

 40
0.0
 41
0.0
 42
0.0
 43
0.0
 44
0.0
 45
0.0
 46
0.0
 47
0.0
 48
0.0
 49
0.0
140
0.0
141
0.0
142
1.0
143
1.0
 70
  1712
 72
     0
 73
     0
 74
     0
  7

 75
     0
147
1.0
 76
     0
 77
     2
 78
   300
148
0.0
149
0.0
100
AcDbLayout
  1
Model
 70
     1
 71
     0
 10
0.0
 20
0.0
 11
12.0
 21
9.0
 12
0.0
 22
0.0
 32
0.0
 14
0.0
 24
0.0
 34
0.0
 15
0.0
 25
0.0
 35
0.0
146
0.0
 13
0.0
 23
0.0
 33
0.0
 16
1.0
 26
0.0
 36
0.0
 17
0.0
 27
1.0
 37
0.0
 76
     0
330
70
331
57
  0
MATERIAL
  5
19
102
{ACAD_XDICTIONARY
360
1A
102
}
102
{ACAD_REACTORS
330
10
102
}
330
10
100
AcDbMaterial
  1
ByBlock
 72
     0
 43
0.0208333333333333
 43
0.0
 43
0.0
 43
0.0
 43
0.0
 43
0.0208333333333333
 43
0.0
 43
0.0
 43
0.0
 43
0.0
 43
1.0
 43
0.0
 43
0.0
 43
0.0
 43
0.0
 43
1.0
 77
     0
 47
0.0208333333333333
 47
0.0
 47
0.0
 47
0.0
 47
0.0
 47
0.0208333333333333
 47
0.0
 47
0.0
 47
0.0
 47
0.0
 47
1.0
 47
0.0
 47
0.0
 47
0.0
 47
0.0
 47
1.0
171
     0
 49
0.0208333333333333
 49
0.0
 49
0.0
 49
0.0
 49
0.0
 49
0.0208333333333333
 49
0.0
 49
0.0
 49
0.0
 49
0.0
 49
1.0
 49
0.0
 49
0.0
 49
0.0
 49
0.0
 49
1.0
175
     0
142
0.0208333333333333
142
0.0
142
0.0
142
0.0
142
0.0
142
0.0208333333333333
142
0.0
142
0.0
142
0.0
142
0.0
142
1.0
142
0.0
142
0.0
142
0.0
142
0.0
142
1.0
179
     0
144
0.0208333333333333
144
0.0
144
0.0
144
0.0
144
0.0
144
0.0208333333333333
144
0.0
144
0.0
144
0.0
144
0.0
144
1.0
144
0.0
144
0.0
144
0.0
144
0.0
144
1.0
147
0.0208333333333333
147
0.0
147
0.0
147
0.0
147
0.0
147
0.0208333333333333
147
0.0
147
0.0
147
0.0
147
0.0
147
1.0
147
0.0
147
0.0
147
0.0
147
0.0
147
1.0
  0
MATERIAL
  5
11
102
{ACAD_XDICTIONARY
360
12
102
}
102
{ACAD_REACTORS
330
10
102
}
330
10
100
AcDbMaterial
  1
ByLayer
 72
     0
 43
0.0208333333333333
 43
0.0
 43
0.0
 43
0.0
 43
0.0
 43
0.0208333333333333
 43
0.0
 43
0.0
 43
0.0
 43
0.0
 43
1.0
 43
0.0
 43
0.0
 43
0.0
 43
0.0
 43
1.0
 77
     0
 47
0.0208333333333333
 47
0.0
 47
0.0
 47
0.0
 47
0.0
 47
0.0208333333333333
 47
0.0
 47
0.0
 47
0.0
 47
0.0
 47
1.0
 47
0.0
 47
0.0
 47
0.0
 47
0.0
 47
1.0
171
     0
 49
0.0208333333333333
 49
0.0
 49
0.0
 49
0.0
 49
0.0
 49
0.0208333333333333
 49
0.0
 49
0.0
 49
0.0
 49
0.0
 49
1.0
 49
0.0
 49
0.0
 49
0.0
 49
0.0
 49
1.0
175
     0
142
0.0208333333333333
142
0.0
142
0.0
142
0.0
142
0.0
142
0.0208333333333333
142
0.0
142
0.0
142
0.0
142
0.0
142
1.0
142
0.0
142
0.0
142
0.0
142
0.0
142
1.0
179
     0
144
0.0208333333333333
144
0.0
144
0.0
144
0.0
144
0.0
144
0.0208333333333333
144
0.0
144
0.0
144
0.0
144
0.0
144
1.0
144
0.0
144
0.0
144
0.0
144
0.0
144
1.0
147
0.0208333333333333
147
0.0
147
0.0
147
0.0
147
0.0
147
0.0208333333333333
147
0.0
147
0.0
147
0.0
147
0.0
147
1.0
147
0.0
147
0.0
147
0.0
147
0.0
147
1.0
  0
MATERIAL
  5
21
102
{ACAD_XDICTIONARY
360
22
102
}
102
{ACAD_REACTORS
330
10
102
}
330
10
100
AcDbMaterial
  1
Global
 72
     0
 43
0.0208333333333333
 43
0.0
 43
0.0
 43
0.0
 43
0.0
 43
0.0208333333333333
 43
0.0
 43
0.0
 43
0.0
 43
0.0
 43
1.0
 43
0.0
 43
0.0
 43
0.0
 43
0.0
 43
1.0
 77
     0
 47
0.0208333333333333
 47
0.0
 47
0.0
 47
0.0
 47
0.0
 47
0.0208333333333333
 47
0.0
 47
0.0
 47
0.0
 47
0.0
 47
1.0
 47
0.0
 47
0.0
 47
0.0
 47
0.0
 47
1.0
171
     0
 49
0.0208333333333333
 49
0.0
 49
0.0
 49
0.0
 49
0.0
 49
0.0208333333333333
 49
0.0
 49
0.0
 49
0.0
 49
0.0
 49
1.0
 49
0.0
 49
0.0
 49
0.0
 49
0.0
 49
1.0
175
     0
142
0.0208333333333333
142
0.0
142
0.0
142
0.0
142
0.0
142
0.0208333333333333
142
0.0
142
0.0
142
0.0
142
0.0
142
1.0
142
0.0
142
0.0
142
0.0
142
0.0
142
1.0
179
     0
144
0.0208333333333333
144
0.0
144
0.0
144
0.0
144
0.0
144
0.0208333333333333
144
0.0
144
0.0
144
0.0
144
0.0
144
1.0
144
0.0
144
0.0
144
0.0
144
0.0
144
1.0
147
0.0208333333333333
147
0.0
147
0.0
147
0.0
147
0.0
147
0.0208333333333333
147
0.0
147
0.0
147
0.0
147
0.0
147
1.0
147
0.0
147
0.0
147
0.0
147
0.0
147
1.0
  0
MLEADERSTYLE
  5
67
102
{ACAD_REACTORS
330
66
102
}
330
66
100
AcDbMLeaderStyle
179
     2
170
     2
171
     1
172
     0
 90
        2
 40
0.0
 41
0.0
173
     1
 91
-1056964608
340
5B
 92
       -2
290
     1
 42
0.09
291
     1
 43
0.36
  3
Standard
 44
0.18
300

342
55
174
     1
178
     6
175
     1
176
     0
 93
-1056964608
 45
0.18
292
     0
297
     0
 46
0.18
 94
-1056964608
 47
1.0
 49
1.0
140
1.0
293
     1
141
0.0
294
     1
177
     0
142
1.0
295
     1
296
     0
143
0.125
271
     0
272
     9
273
     9
298
     1
  0
MLINESTYLE
  5
60
102
{ACAD_REACTORS
330
5F
102
}
330
5F
100
AcDbMlineStyle
  2
STANDARD
 70
     0
  3

 62
   256
 51
90.0
 52
90.0
 71
     2
 49
0.5
 62
   256
  6
BYLAYER
 49
-0.5
 62
   256
  6
BYLAYER
  0
ACDBPLACEHOLDER
  5
F
102
{ACAD_REACTORS
330
E
102
}
330
E
  0
SCALE
  5
43
102
{ACAD_REACTORS
330
42
102
}
330
42
100
AcDbScale
 70
     0
300
1:1
140
1.0
141
1.0
290
     1
  0
SCALE
  5
44
102
{ACAD_REACTORS
330
42
102
}
330
42
100
AcDbScale
 70
     0
300
1/128" = 1'-0"
140
0.0078125
141
12.0
290
     0
  0
SCALE
  5
45
102
{ACAD_REACTORS
330
42
102
}
330
42
100
AcDbScale
 70
     0
300
1/64" = 1'-0"
140
0.015625
141
12.0
290
     0
  0
SCALE
  5
46
102
{ACAD_REACTORS
330
42
102
}
330
42
100
AcDbScale
 70
     0
300
1/32" = 1'-0"
140
0.03125
141
12.0
290
     0
  0
SCALE
  5
47
102
{ACAD_REACTORS
330
42
102
}
330
42
100
AcDbScale
 70
     0
300
1/16" = 1'-0"
140
0.0625
141
12.0
290
     0
  0
SCALE
  5
48
102
{ACAD_REACTORS
330
42
102
}
330
42
100
AcDbScale
 70
     0
300
3/32" = 1'-0"
140
0.09375
141
12.0
290
     0
  0
SCALE
  5
49
102
{ACAD_REACTORS
330
42
102
}
330
42
100
AcDbScale
 70
     0
300
1/8" = 1'-0"
140
0.125
141
12.0
290
     0
  0
SCALE
  5
4A
102
{ACAD_REACTORS
330
42
102
}
330
42
100
AcDbScale
 70
     0
300
3/16" = 1'-0"
140
0.1875
141
12.0
290
     0
  0
SCALE
  5
4B
102
{ACAD_REACTORS
330
42
102
}
330
42
100
AcDbScale
 70
     0
300
1/4" = 1'-0"
140
0.25
141
12.0
290
     0
  0
SCALE
  5
4C
102
{ACAD_REACTORS
330
42
102
}
330
42
100
AcDbScale
 70
     0
300
3/8" = 1'-0"
140
0.375
141
12.0
290
     0
  0
SCALE
  5
4D
102
{ACAD_REACTORS
330
42
102
}
330
42
100
AcDbScale
 70
     0
300
1/2" = 1'-0"
140
0.5
141
12.0
290
     0
  0
SCALE
  5
4E
102
{ACAD_REACTORS
330
42
102
}
330
42
100
AcDbScale
 70
     0
300
3/4" = 1'-0"
140
0.75
141
12.0
290
     0
  0
SCALE
  5
4F
102
{ACAD_REACTORS
330
42
102
}
330
42
100
AcDbScale
 70
     0
300
1" = 1'-0"
140
1.0
141
12.0
290
     0
  0
SCALE
  5
50
102
{ACAD_REACTORS
330
42
102
}
330
42
100
AcDbScale
 70
     0
300
1-1/2" = 1'-0"
140
1.5
141
12.0
290
     0
  0
SCALE
  5
51
102
{ACAD_REACTORS
330
42
102
}
330
42
100
AcDbScale
 70
     0
300
3" = 1'-0"
140
3.0
141
12.0
290
     0
  0
SCALE
  5
52
102
{ACAD_REACTORS
330
42
102
}
330
42
100
AcDbScale
 70
     0
300
6" = 1'-0"
140
6.0
141
12.0
290
     0
  0
SCALE
  5
53
102
{ACAD_REACTORS
330
42
102
}
330
42
100
AcDbScale
 70
     0
300
1'-0" = 1'-0"
140
12.0
141
12.0
290
     0
  0
ACDBSECTIONVIEWSTYLE
  5
69
102
{ACAD_XDICTIONARY
360
D8
102
}
102
{ACAD_REACTORS
330
68
102
}
330
68
100
AcDbModelDocViewStyle
 70
     0
  3
Imperial24
290
     0
100
AcDbSectionViewStyle
 70
     0
 71
     0
 90
       78
 71
     1
340
55
 62
   256
 40
0.24
340
0
340
0
 62
   256
 40
0.24
300
I, O, Q, S, X, Z
 40
0.48
 90
        3
 40
0.18
 90
        1
 71
     2
340
5D
 90
       25
 62
   256
340
5D
 90
       50
 62
   256
 40
0.24
 40
0.0
 40
0.24
 71
     3
340
55
 62
   256
 40
0.24
 90
        1
 40
0.75
 90
        1
300
%<\AcVar ViewType \f "%tc1">% %<\AcVar ViewSectionStartId>%-%<\AcVar ViewSectionEndId>%\PSCALE %<\AcVar ViewScale \f "%sn">%
 71
     4
 62
   256
 62
   257
300
ANSI31
 40
1.0
 90
        0
290
     0
290
     0
 90
        6
 40
0.0
 40
1.570796326794896
 40
0.2617993877991494
 40
1.308996938995747
 40
-0.2617993877991494
 40
1.832595714594046
  0
TABLESTYLE
  5
65
102
{ACAD_XDICTIONARY
360
173
102
}
102
{ACAD_REACTORS
330
64
102
}
330
64
100
AcDbTableStyle
280
     0
  3
Standard
 70
     0
 71
     0
 40
0.06
 41
0.06
280
     0
281
     0
  7
Standard
140
0.18
170
     2
 62
     0
 63
     7
283
     0
 90
      512
 91
        0
  1

274
    -2
284
     1
 64
     0
275
    -2
285
     1
 65
     0
276
    -2
286
     1
 66
     0
277
    -2
287
     1
 67
     0
278
    -2
288
     1
 68
     0
279
    -2
289
     1
 69
     0
  7
Standard
140
0.25
170
     5
 62
     0
 63
     7
283
     0
 90
      512
 91
        0
  1

274
    -2
284
     1
 64
     0
275
    -2
285
     1
 65
     0
276
    -2
286
     1
 66
     0
277
    -2
287
     1
 67
     0
278
    -2
288
     1
 68
     0
279
    -2
289
     1
 69
     0
  7
Standard
140
0.18
170
     5
 62
     0
 63
     7
283
     0
 90
      512
 91
        0
  1

274
    -2
284
     1
 64
     0
275
    -2
285
     1
 65
     0
276
    -2
286
     1
 66
     0
277
    -2
287
     1
 67
     0
278
    -2
288
     1
 68
     0
279
    -2
289
     1
 69
     0
  0
VISUALSTYLE
  5
2F
102
{ACAD_REACTORS
330
29
102
}
330
29
100
AcDbVisualStyle
  2
2dWireframe
 70
     4
177
     3
291
     0
 70
    58
 90
        0
176
     1
 90
        2
176
     1
 90
        0
176
     1
 90
        0
176
     1
 40
0.6
176
     1
 40
30.0
176
     1
 62
     7
420
 16777215
176
     1
 90
        1
176
     1
 90
        4
176
     1
 62
     7
176
     1
 62
   257
176
     1
 90
        1
176
     1
 90
        1
176
     1
 40
1.0
176
     1
 90
        0
176
     1
 62
   257
176
     1
 40
1.0
176
     1
 90
        1
176
     1
 90
        6
176
     1
 90
        2
176
     1
 62
     7
176
     1
 90
        5
176
     1
 90
        0
176
     1
 90
        0
176
     1
290
     0
176
     1
 90
        1
176
     1
 40
0.0
176
     1
 90
        0
176
     1
290
     1
176
     1
290
     1
176
     1
290
     0
176
     1
290
     0
176
     1
290
     0
176
     1
290
     0
176
     1
290
     0
176
     1
290
     0
176
     1
290
     0
176
     1
 90
       50
176
     1
 40
0.0
176
     1
 40
1.0
176
     1
 90
        0
176
     1
 62
    18
420
        0
176
     1
 90
       50
176
     1
 90
        3
176
     1
 62
     5
420
      255
176
     1
290
     0
176
     1
 90
       50
176
     1
 90
       50
176
     1
 90
       50
176
     1
290
     0
176
     1
 90
       50
176
     1
 62
   256
176
     0
 40
1.0
176
     0
 90
        2
176
     1
  1
strokes_ogs.tif
176
     1
290
     0
176
     1
 40
1.0
176
     1
 40
1.0
176
     1
  0
VISUALSTYLE
  5
2E
102
{ACAD_REACTORS
330
29
102
}
330
29
100
AcDbVisualStyle
  2
Basic
 70
     7
177
     3
291
     1
 70
    58
 90
        1
176
     1
 90
        0
176
     1
 90
        1
176
     1
 90
        0
176
     1
 40
0.6
176
     1
 40
30.0
176
     1
 62
     7
420
 16777215
176
     1
 90
        0
176
     1
 90
        4
176
     1
 62
     7
176
     1
 62
   257
176
     1
 90
        1
176
     1
 90
        1
176
     1
 40
1.0
176
     1
 90
        8
176
     1
 62
     7
176
     1
 40
1.0
176
     1
 90
        1
176
     1
 90
        6
176
     1
 90
        2
176
     1
 62
     7
176
     1
 90
        5
176
     1
 90
        0
176
     1
 90
        0
176
     1
290
     0
176
     1
 90
        1
176
     1
 40
0.0
176
     1
 90
        0
176
     1
290
     0
176
     1
290
     1
176
     1
290
     1
176
     1
290
     0
176
     1
290
     0
176
     1
290
     0
176
     1
290
     0
176
     1
290
     0
176
     1
290
     0
176
     1
 90
       50
176
     1
 40
0.0
176
     1
 40
1.0
176
     1
 90
        0
176
     1
 62
    18
420
        0
176
     1
 90
       50
176
     1
 90
        3
176
     1
 62
     5
420
      255
176
     1
290
     0
176
     1
 90
       50
176
     1
 90
       50
176
     1
 90
       50
176
     1
290
     0
176
     1
 90
       50
176
     1
 62
   256
176
     0
 40
1.0
176
     0
 90
        2
176
     1
  1
strokes_ogs.tif
176
     1
290
     0
176
     1
 40
1.0
176
     1
 40
1.0
176
     1
  0
VISUALSTYLE
  5
35
102
{ACAD_REACTORS
330
29
102
}
330
29
100
AcDbVisualStyle
  2
Brighten
 70
    12
177
     3
291
     1
 70
    58
 90
        2
176
     1
 90
        2
176
     1
 90
        0
176
     1
 90
        0
176
     1
 40
0.6
176
     1
 40
30.0
176
     1
 62
     7
420
 16777215
176
     1
 90
        1
176
     1
 90
        4
176
     1
 62
     7
176
     1
 62
   257
176
     1
 90
        1
176
     1
 90
        1
176
     1
 40
1.0
176
     1
 90
        8
176
     1
 62
     7
176
     1
 40
1.0
176
     1
 90
        1
176
     1
 90
        6
176
     1
 90
        2
176
     1
 62
     7
176
     1
 90
        5
176
     1
 90
        0
176
     1
 90
        0
176
     1
290
     0
176
     1
 90
        1
176
     1
 40
50.0
176
     1
 90
        0
176
     1
290
     0
176
     1
290
     1
176
     1
290
     1
176
     1
290
     0
176
     1
290
     0
176
     1
290
     0
176
     1
290
     0
176
     1
290
     0
176
     1
290
     0
176
     1
 90
       50
176
     1
 40
0.0
176
     1
 40
1.0
176
     1
 90
        0
176
     1
 62
    18
420
        0
176
     1
 90
       50
176
     1
 90
        3
176
     1
 62
     5
420
      255
176
     1
290
     0
176
     1
 90
       50
176
     1
 90
       50
176
     1
 90
       50
176
     1
290
     0
176
     1
 90
       50
176
     1
 62
   256
176
     0
 40
1.0
176
     0
 90
        2
176
     1
  1
strokes_ogs.tif
176
     1
290
     0
176
     1
 40
1.0
176
     1
 40
1.0
176
     1
  0
VISUALSTYLE
  5
39
102
{ACAD_REACTORS
330
29
102
}
330
29
100
AcDbVisualStyle
  2
ColorChange
 70
    16
177
     3
291
     1
 70
    58
 90
        2
176
     1
 90
        2
176
     1
 90
        3
176
     1
 90
        0
176
     1
 40
0.6
176
     1
 40
30.0
176
     1
 62
     8
420
  8421504
176
     1
 90
        1
176
     1
 90
        4
176
     1
 62
     7
176
     1
 62
   257
176
     1
 90
        1
176
     1
 90
        1
176
     1
 40
1.0
176
     1
 90
        8
176
     1
 62
     8
420
  8421504
176
     1
 40
1.0
176
     1
 90
        1
176
     1
 90
        6
176
     1
 90
        2
176
     1
 62
     7
176
     1
 90
        5
176
     1
 90
        0
176
     1
 90
        0
176
     1
290
     0
176
     1
 90
        1
176
     1
 40
0.0
176
     1
 90
        0
176
     1
290
     0
176
     1
290
     1
176
     1
290
     1
176
     1
290
     0
176
     1
290
     0
176
     1
290
     0
176
     1
290
     0
176
     1
290
     0
176
     1
290
     0
176
     1
 90
       50
176
     1
 40
0.0
176
     1
 40
1.0
176
     1
 90
        0
176
     1
 62
    18
420
        0
176
     1
 90
       50
176
     1
 90
        3
176
     1
 62
     5
420
      255
176
     1
290
     0
176
     1
 90
       50
176
     1
 90
       50
176
     1
 90
       50
176
     1
290
     0
176
     1
 90
       50
176
     1
 62
   256
176
     0
 40
1.0
176
     0
 90
        2
176
     1
  1
strokes_ogs.tif
176
     1
290
     0
176
     1
 40
1.0
176
     1
 40
1.0
176
     1
  0
VISUALSTYLE
  5
32
102
{ACAD_REACTORS
330
29
102
}
330
29
100
AcDbVisualStyle
  2
Conceptual
 70
     9
177
     3
291
     0
 70
    58
 90
        3
176
     1
 90
        2
176
     1
 90
        0
176
     1
 90
        0
176
     1
 40
0.6
176
     1
 40
30.0
176
     1
 62
     7
420
 16777215
176
     1
 90
        2
176
     1
 90
        2
176
     1
 62
     7
176
     1
 62
   257
176
     1
 90
        1
176
     1
 90
        1
176
     1
 40
179.0
176
     1
 90
        8
176
     1
 62
     7
176
     1
 40
1.0
176
     1
 90
        1
176
     1
 90
        6
176
     1
 90
        2
176
     1
 62
     7
176
     1
 90
        3
176
     1
 90
        0
176
     1
 90
        0
176
     1
290
     0
176
     1
 90
        1
176
     1
 40
0.0
176
     1
 90
        0
176
     1
290
     0
176
     1
290
     1
176
     1
290
     1
176
     1
290
     0
176
     1
290
     0
176
     1
290
     0
176
     1
290
     0
176
     1
290
     0
176
     1
290
     0
176
     1
 90
       50
176
     1
 40
0.0
176
     1
 40
1.0
176
     1
 90
        0
176
     1
 62
    18
420
        0
176
     1
 90
       50
176
     1
 90
        3
176
     1
 62
     5
420
      255
176
     1
290
     0
176
     1
 90
       50
176
     1
 90
       50
176
     1
 90
       50
176
     1
290
     0
176
     1
 90
       50
176
     1
 62
   256
176
     0
 40
1.0
176
     0
 90
        2
176
     1
  1
strokes_ogs.tif
176
     1
290
     0
176
     1
 40
1.0
176
     1
 40
1.0
176
     1
  0
VISUALSTYLE
  5
34
102
{ACAD_REACTORS
330
29
102
}
330
29
100
AcDbVisualStyle
  2
Dim
 70
    11
177
     3
291
     1
 70
    58
 90
        2
176
     1
 90
        2
176
     1
 90
        0
176
     1
 90
        0
176
     1
 40
0.6
176
     1
 40
30.0
176
     1
 62
     7
420
 16777215
176
     1
 90
        1
176
     1
 90
        4
176
     1
 62
     7
176
     1
 62
   257
176
     1
 90
        1
176
     1
 90
        1
176
     1
 40
1.0
176
     1
 90
        8
176
     1
 62
     7
176
     1
 40
1.0
176
     1
 90
        1
176
     1
 90
        6
176
     1
 90
        2
176
     1
 62
     7
176
     1
 90
        5
176
     1
 90
        0
176
     1
 90
        0
176
     1
290
     0
176
     1
 90
        1
176
     1
 40
-50.0
176
     1
 90
        0
176
     1
290
     0
176
     1
290
     1
176
     1
290
     1
176
     1
290
     0
176
     1
290
     0
176
     1
290
     0
176
     1
290
     0
176
     1
290
     0
176
     1
290
     0
176
     1
 90
       50
176
     1
 40
0.0
176
     1
 40
1.0
176
     1
 90
        0
176
     1
 62
    18
420
        0
176
     1
 90
       50
176
     1
 90
        3
176
     1
 62
     5
420
      255
176
     1
290
     0
176
     1
 90
       50
176
     1
 90
       50
176
     1
 90
       50
176
     1
290
     0
176
     1
 90
       50
176
     1
 62
   256
176
     0
 40
1.0
176
     0
 90
        2
176
     1
  1
strokes_ogs.tif
176
     1
290
     0
176
     1
 40
1.0
176
     1
 40
1.0
176
     1
  0
VISUALSTYLE
  5
41
102
{ACAD_REACTORS
330
29
102
}
330
29
100
AcDbVisualStyle
  2
EdgeColorOff
 70
    22
177
     3
291
     1
 70
    58
 90
        2
176
     0
 90
        2
176
     0
 90
        0
176
     0
 90
        0
176
     0
 40
0.6
176
     0
 40
30.0
176
     0
 62
     7
420
 16777215
176
     0
 90
        1
176
     0
 90
        4
176
     0
 62
     7
176
     0
 62
   257
176
     0
 90
        1
176
     0
 90
        1
176
     0
 40
1.0
176
     0
 90
        8
176
     2
 62
     7
176
     0
 40
1.0
176
     0
 90
        1
176
     0
 90
        6
176
     0
 90
        2
176
     0
 62
     7
176
     0
 90
        5
176
     0
 90
        0
176
     0
 90
        0
176
     0
290
     0
176
     0
 90
        1
176
     0
 40
0.0
176
     0
 90
        0
176
     0
290
     0
176
     0
290
     1
176
     0
290
     1
176
     0
290
     0
176
     0
290
     0
176
     0
290
     0
176
     0
290
     0
176
     0
290
     0
176
     0
290
     0
176
     0
 90
       50
176
     0
 40
0.0
176
     0
 40
1.0
176
     0
 90
        0
176
     0
 62
    18
420
        0
176
     0
 90
       50
176
     0
 90
        3
176
     0
 62
     5
420
      255
176
     0
290
     0
176
     0
 90
       50
176
     0
 90
       50
176
     0
 90
       50
176
     0
290
     0
176
     0
 90
       50
176
     0
 62
   256
176
     0
 40
1.0
176
     0
 90
        2
176
     0
  1
strokes_ogs.tif
176
     0
290
     0
176
     0
 40
1.0
176
     0
 40
1.0
176
     0
  0
VISUALSTYLE
  5
38
102
{ACAD_REACTORS
330
29
102
}
330
29
100
AcDbVisualStyle
  2
Facepattern
 70
    15
177
     3
291
     1
 70
    58
 90
        2
176
     1
 90
        2
176
     1
 90
        0
176
     1
 90
        0
176
     1
 40
0.6
176
     1
 40
30.0
176
     1
 62
     7
420
 16777215
176
     1
 90
        1
176
     1
 90
        4
176
     1
 62
     7
176
     1
 62
   257
176
     1
 90
        1
176
     1
 90
        1
176
     1
 40
1.0
176
     1
 90
        8
176
     1
 62
     7
176
     1
 40
1.0
176
     1
 90
        1
176
     1
 90
        6
176
     1
 90
        2
176
     1
 62
     7
176
     1
 90
        5
176
     1
 90
        0
176
     1
 90
        0
176
     1
290
     0
176
     1
 90
        1
176
     1
 40
0.0
176
     1
 90
        0
176
     1
290
     0
176
     1
290
     1
176
     1
290
     1
176
     1
290
     0
176
     1
290
     0
176
     1
290
     0
176
     1
290
     0
176
     1
290
     0
176
     1
290
     0
176
     1
 90
       50
176
     1
 40
0.0
176
     1
 40
1.0
176
     1
 90
        0
176
     1
 62
    18
420
        0
176
     1
 90
       50
176
     1
 90
        3
176
     1
 62
     5
420
      255
176
     1
290
     0
176
     1
 90
       50
176
     1
 90
       50
176
     1
 90
       50
176
     1
290
     0
176
     1
 90
       50
176
     1
 62
   256
176
     0
 40
1.0
176
     0
 90
        2
176
     1
  1
strokes_ogs.tif
176
     1
290
     0
176
     1
 40
1.0
176
     1
 40
1.0
176
     1
  0
VISUALSTYLE
  5
2A
102
{ACAD_REACTORS
330
29
102
}
330
29
100
AcDbVisualStyle
  2
Flat
 70
     0
177
     3
291
     1
 70
    58
 90
        2
176
     1
 90
        1
176
     1
 90
        1
176
     1
 90
        2
176
     1
 40
0.6
176
     1
 40
30.0
176
     1
 62
     7
420
 16777215
176
     1
 90
        0
176
     1
 90
        0
176
     1
 62
     7
176
     1
 62
   257
176
     1
 90
        1
176
     1
 90
        1
176
     1
 40
1.0
176
     1
 90
        8
176
     1
 62
     7
176
     1
 40
1.0
176
     1
 90
        1
176
     1
 90
        6
176
     1
 90
        2
176
     1
 62
     7
176
     1
 90
        5
176
     1
 90
        0
176
     1
 90
        0
176
     1
290
     0
176
     1
 90
       13
176
     1
 40
0.0
176
     1
 90
        0
176
     1
290
     0
176
     1
290
     1
176
     1
290
     1
176
     1
290
     0
176
     1
290
     0
176
     1
290
     0
176
     1
290
     0
176
     1
290
     0
176
     1
290
     0
176
     1
 90
       50
176
     1
 40
0.0
176
     1
 40
1.0
176
     1
 90
        0
176
     1
 62
    18
420
        0
176
     1
 90
       50
176
     1
 90
        3
176
     1
 62
     5
420
      255
176
     1
290
     0
176
     1
 90
       50
176
     1
 90
       50
176
     1
 90
       50
176
     1
290
     0
176
     1
 90
       50
176
     1
 62
   256
176
     0
 40
1.0
176
     0
 90
        2
176
     1
  1
strokes_ogs.tif
176
     1
290
     0
176
     1
 40
1.0
176
     1
 40
1.0
176
     1
  0
VISUALSTYLE
  5
2B
102
{ACAD_REACTORS
330
29
102
}
330
29
100
AcDbVisualStyle
  2
FlatWithEdges
 70
     1
177
     3
291
     1
 70
    58
 90
        2
176
     1
 90
        1
176
     1
 90
        1
176
     1
 90
        2
176
     1
 40
0.6
176
     1
 40
30.0
176
     1
 62
     7
420
 16777215
176
     1
 90
        1
176
     1
 90
        0
176
     1
 62
     7
176
     1
 62
   257
176
     1
 90
        1
176
     1
 90
        1
176
     1
 40
1.0
176
     1
 90
        0
176
     1
 62
   257
176
     1
 40
1.0
176
     1
 90
        1
176
     1
 90
        6
176
     1
 90
        2
176
     1
 62
     7
176
     1
 90
        5
176
     1
 90
        0
176
     1
 90
        0
176
     1
290
     0
176
     1
 90
       13
176
     1
 40
0.0
176
     1
 90
        0
176
     1
290
     0
176
     1
290
     1
176
     1
290
     1
176
     1
290
     0
176
     1
290
     0
176
     1
290
     0
176
     1
290
     0
176
     1
290
     0
176
     1
290
     0
176
     1
 90
       50
176
     1
 40
0.0
176
     1
 40
1.0
176
     1
 90
        0
176
     1
 62
    18
420
        0
176
     1
 90
       50
176
     1
 90
        3
176
     1
 62
     5
420
      255
176
     1
290
     0
176
     1
 90
       50
176
     1
 90
       50
176
     1
 90
       50
176
     1
290
     0
176
     1
 90
       50
176
     1
 62
   256
176
     0
 40
1.0
176
     0
 90
        2
176
     1
  1
strokes_ogs.tif
176
     1
290
     0
176
     1
 40
1.0
176
     1
 40
1.0
176
     1
  0
VISUALSTYLE
  5
2C
102
{ACAD_REACTORS
330
29
102
}
330
29
100
AcDbVisualStyle
  2
Gouraud
 70
     2
177
     3
291
     1
 70
    58
 90
        2
176
     1
 90
        2
176
     1
 90
        1
176
     1
 90
        2
176
     1
 40
0.6
176
     1
 40
30.0
176
     1
 62
     7
420
 16777215
176
     1
 90
        0
176
     1
 90
        0
176
     1
 62
     7
176
     1
 62
   257
176
     1
 90
        1
176
     1
 90
        1
176
     1
 40
1.0
176
     1
 90
        0
176
     1
 62
     7
176
     1
 40
1.0
176
     1
 90
        1
176
     1
 90
        6
176
     1
 90
        2
176
     1
 62
     7
176
     1
 90
        5
176
     1
 90
        0
176
     1
 90
        0
176
     1
290
     0
176
     1
 90
       13
176
     1
 40
0.0
176
     1
 90
        0
176
     1
290
     0
176
     1
290
     1
176
     1
290
     1
176
     1
290
     0
176
     1
290
     0
176
     1
290
     0
176
     1
290
     0
176
     1
290
     0
176
     1
290
     0
176
     1
 90
       50
176
     1
 40
0.0
176
     1
 40
1.0
176
     1
 90
        0
176
     1
 62
    18
420
        0
176
     1
 90
       50
176
     1
 90
        3
176
     1
 62
     5
420
      255
176
     1
290
     0
176
     1
 90
       50
176
     1
 90
       50
176
     1
 90
       50
176
     1
290
     0
176
     1
 90
       50
176
     1
 62
   256
176
     0
 40
1.0
176
     0
 90
        2
176
     1
  1
strokes_ogs.tif
176
     1
290
     0
176
     1
 40
1.0
176
     1
 40
1.0
176
     1
  0
VISUALSTYLE
  5
2D
102
{ACAD_REACTORS
330
29
102
}
330
29
100
AcDbVisualStyle
  2
GouraudWithEdges
 70
     3
177
     3
291
     1
 70
    58
 90
        2
176
     1
 90
        2
176
     1
 90
        1
176
     1
 90
        2
176
     1
 40
0.6
176
     1
 40
30.0
176
     1
 62
     7
420
 16777215
176
     1
 90
        1
176
     1
 90
        0
176
     1
 62
     7
176
     1
 62
   257
176
     1
 90
        1
176
     1
 90
        1
176
     1
 40
1.0
176
     1
 90
        0
176
     1
 62
   257
176
     1
 40
1.0
176
     1
 90
        1
176
     1
 90
        6
176
     1
 90
        2
176
     1
 62
     7
176
     1
 90
        5
176
     1
 90
        0
176
     1
 90
        0
176
     1
290
     0
176
     1
 90
       13
176
     1
 40
0.0
176
     1
 90
        0
176
     1
290
     0
176
     1
290
     1
176
     1
290
     1
176
     1
290
     0
176
     1
290
     0
176
     1
290
     0
176
     1
290
     0
176
     1
290
     0
176
     1
290
     0
176
     1
 90
       50
176
     1
 40
0.0
176
     1
 40
1.0
176
     1
 90
        0
176
     1
 62
    18
420
        0
176
     1
 90
       50
176
     1
 90
        3
176
     1
 62
     5
420
      255
176
     1
290
     0
176
     1
 90
       50
176
     1
 90
       50
176
     1
 90
       50
176
     1
290
     0
176
     1
 90
       50
176
     1
 62
   256
176
     0
 40
1.0
176
     0
 90
        2
176
     1
  1
strokes_ogs.tif
176
     1
290
     0
176
     1
 40
1.0
176
     1
 40
1.0
176
     1
  0
VISUALSTYLE
  5
31
102
{ACAD_REACTORS
330
29
102
}
330
29
100
AcDbVisualStyle
  2
Hidden
 70
     6
177
     3
291
     0
 70
    58
 90
        1
176
     1
 90
        2
176
     1
 90
        2
176
     1
 90
        0
176
     1
 40
0.6
176
     1
 40
30.0
176
     1
 62
     7
420
 16777215
176
     1
 90
        2
176
     1
 90
        2
176
     1
 62
     7
176
     1
 62
   257
176
     1
 90
        2
176
     1
 90
        1
176
     1
 40
40.0
176
     1
 90
        0
176
     1
 62
   257
176
     1
 40
1.0
176
     1
 90
        1
176
     1
 90
        6
176
     1
 90
        2
176
     1
 62
     7
176
     1
 90
        3
176
     1
 90
        0
176
     1
 90
        0
176
     1
290
     0
176
     1
 90
        1
176
     1
 40
0.0
176
     1
 90
        0
176
     1
290
     0
176
     1
290
     1
176
     1
290
     1
176
     1
290
     0
176
     1
290
     0
176
     1
290
     0
176
     1
290
     0
176
     1
290
     0
176
     1
290
     0
176
     1
 90
       50
176
     1
 40
0.0
176
     1
 40
1.0
176
     1
 90
        0
176
     1
 62
    18
420
        0
176
     1
 90
       50
176
     1
 90
        3
176
     1
 62
     5
420
      255
176
     1
290
     0
176
     1
 90
       50
176
     1
 90
       50
176
     1
 90
       50
176
     1
290
     0
176
     1
 90
       50
176
     1
 62
   256
176
     0
 40
1.0
176
     0
 90
        2
176
     1
  1
strokes_ogs.tif
176
     1
290
     0
176
     1
 40
1.0
176
     1
 40
1.0
176
     1
  0
VISUALSTYLE
  5
3F
102
{ACAD_REACTORS
330
29
102
}
330
29
100
AcDbVisualStyle
  2
JitterOff
 70
    20
177
     3
291
     1
 70
    58
 90
        2
176
     0
 90
        2
176
     0
 90
        0
176
     0
 90
        0
176
     0
 40
0.6
176
     0
 40
30.0
176
     0
 62
     7
420
 16777215
176
     0
 90
        1
176
     0
 90
        4
176
     0
 62
     7
176
     0
 62
   257
176
     0
 90
        1
176
     0
 90
        1
176
     0
 40
1.0
176
     0
 90
       10
176
     2
 62
     7
176
     0
 40
1.0
176
     0
 90
        1
176
     0
 90
        6
176
     0
 90
        2
176
     0
 62
     7
176
     0
 90
        5
176
     0
 90
        0
176
     0
 90
        0
176
     0
290
     0
176
     0
 90
        1
176
     0
 40
0.0
176
     0
 90
        0
176
     0
290
     0
176
     0
290
     1
176
     0
290
     1
176
     0
290
     0
176
     0
290
     0
176
     0
290
     0
176
     0
290
     0
176
     0
290
     0
176
     0
290
     0
176
     0
 90
       50
176
     0
 40
0.0
176
     0
 40
1.0
176
     0
 90
        0
176
     0
 62
    18
420
        0
176
     0
 90
       50
176
     0
 90
        3
176
     0
 62
     5
420
      255
176
     0
290
     0
176
     0
 90
       50
176
     0
 90
       50
176
     0
 90
       50
176
     0
290
     0
176
     0
 90
       50
176
     0
 62
   256
176
     0
 40
1.0
176
     0
 90
        2
176
     0
  1
strokes_ogs.tif
176
     0
290
     0
176
     0
 40
1.0
176
     0
 40
1.0
176
     0
  0
VISUALSTYLE
  5
37
102
{ACAD_REACTORS
330
29
102
}
330
29
100
AcDbVisualStyle
  2
Linepattern
 70
    14
177
     3
291
     1
 70
    58
 90
        2
176
     1
 90
        2
176
     1
 90
        0
176
     1
 90
        0
176
     1
 40
0.6
176
     1
 40
30.0
176
     1
 62
     7
420
 16777215
176
     1
 90
        1
176
     1
 90
        4
176
     1
 62
     7
176
     1
 62
   257
176
     1
 90
        7
176
     1
 90
        7
176
     1
 40
1.0
176
     1
 90
        8
176
     1
 62
     7
176
     1
 40
1.0
176
     1
 90
        1
176
     1
 90
        6
176
     1
 90
        2
176
     1
 62
     7
176
     1
 90
        5
176
     1
 90
        0
176
     1
 90
        0
176
     1
290
     0
176
     1
 90
        1
176
     1
 40
0.0
176
     1
 90
        0
176
     1
290
     0
176
     1
290
     1
176
     1
290
     1
176
     1
290
     0
176
     1
290
     0
176
     1
290
     0
176
     1
290
     0
176
     1
290
     0
176
     1
290
     0
176
     1
 90
       50
176
     1
 40
0.0
176
     1
 40
1.0
176
     1
 90
        0
176
     1
 62
    18
420
        0
176
     1
 90
       50
176
     1
 90
        3
176
     1
 62
     5
420
      255
176
     1
290
     0
176
     1
 90
       50
176
     1
 90
       50
176
     1
 90
       50
176
     1
290
     0
176
     1
 90
       50
176
     1
 62
   256
176
     0
 40
1.0
176
     0
 90
        2
176
     1
  1
strokes_ogs.tif
176
     1
290
     0
176
     1
 40
1.0
176
     1
 40
1.0
176
     1
  0
VISUALSTYLE
  5
40
102
{ACAD_REACTORS
330
29
102
}
330
29
100
AcDbVisualStyle
  2
OverhangOff
 70
    21
177
     3
291
     1
 70
    58
 90
        2
176
     0
 90
        2
176
     0
 90
        0
176
     0
 90
        0
176
     0
 40
0.6
176
     0
 40
30.0
176
     0
 62
     7
420
 16777215
176
     0
 90
        1
176
     0
 90
        4
176
     0
 62
     7
176
     0
 62
   257
176
     0
 90
        1
176
     0
 90
        1
176
     0
 40
1.0
176
     0
 90
        9
176
     2
 62
     7
176
     0
 40
1.0
176
     0
 90
        1
176
     0
 90
        6
176
     0
 90
        2
176
     0
 62
     7
176
     0
 90
        5
176
     0
 90
        0
176
     0
 90
        0
176
     0
290
     0
176
     0
 90
        1
176
     0
 40
0.0
176
     0
 90
        0
176
     0
290
     0
176
     0
290
     1
176
     0
290
     1
176
     0
290
     0
176
     0
290
     0
176
     0
290
     0
176
     0
290
     0
176
     0
290
     0
176
     0
290
     0
176
     0
 90
       50
176
     0
 40
0.0
176
     0
 40
1.0
176
     0
 90
        0
176
     0
 62
    18
420
        0
176
     0
 90
       50
176
     0
 90
        3
176
     0
 62
     5
420
      255
176
     0
290
     0
176
     0
 90
       50
176
     0
 90
       50
176
     0
 90
       50
176
     0
290
     0
176
     0
 90
       50
176
     0
 62
   256
176
     0
 40
1.0
176
     0
 90
        2
176
     0
  1
strokes_ogs.tif
176
     0
290
     0
176
     0
 40
1.0
176
     0
 40
1.0
176
     0
  0
VISUALSTYLE
  5
33
102
{ACAD_REACTORS
330
29
102
}
330
29
100
AcDbVisualStyle
  2
Realistic
 70
     8
177
     3
291
     0
 70
    58
 90
        2
176
     1
 90
        3
176
     1
 90
        0
176
     1
 90
        2
176
     1
 40
0.6
176
     1
 40
30.0
176
     1
 62
     7
420
 16777215
176
     1
 90
        0
176
     1
 90
        0
176
     1
 62
     7
176
     1
 62
   257
176
     1
 90
        1
176
     1
 90
        1
176
     1
 40
1.0
176
     1
 90
        8
176
     1
 62
   257
176
     1
 40
1.0
176
     1
 90
        1
176
     1
 90
        6
176
     1
 90
        2
176
     1
 62
     7
176
     1
 90
        3
176
     1
 90
        0
176
     1
 90
        0
176
     1
290
     0
176
     1
 90
       13
176
     1
 40
0.0
176
     1
 90
        0
176
     1
290
     0
176
     1
290
     1
176
     1
290
     1
176
     1
290
     0
176
     1
290
     0
176
     1
290
     0
176
     1
290
     0
176
     1
290
     0
176
     1
290
     0
176
     1
 90
       50
176
     1
 40
0.0
176
     1
 40
1.0
176
     1
 90
        0
176
     1
 62
    18
420
        0
176
     1
 90
       50
176
     1
 90
        3
176
     1
 62
     5
420
      255
176
     1
290
     0
176
     1
 90
       50
176
     1
 90
       50
176
     1
 90
       50
176
     1
290
     0
176
     1
 90
       50
176
     1
 62
   256
176
     0
 40
1.0
176
     0
 90
        2
176
     1
  1
strokes_ogs.tif
176
     1
290
     0
176
     1
 40
1.0
176
     1
 40
1.0
176
     1
  0
VISUALSTYLE
  5
3E
102
{ACAD_REACTORS
330
29
102
}
330
29
100
AcDbVisualStyle
  2
Shaded
 70
    27
177
     3
291
     0
 70
    58
 90
        2
176
     1
 90
        2
176
     1
 90
        1
176
     1
 90
        2
176
     1
 40
0.6
176
     1
 40
30.0
176
     1
 62
     7
420
 16777215
176
     1
 90
        0
176
     1
 90
        4
176
     1
 62
     7
176
     1
 62
   257
176
     1
 90
        1
176
     1
 90
        1
176
     1
 40
1.0
176
     1
 90
        8
176
     1
 62
   257
176
     1
 40
1.0
176
     1
 90
        1
176
     1
 90
        6
176
     1
 90
        2
176
     1
 62
     8
420
  7895160
176
     1
 90
        3
176
     1
 90
        0
176
     1
 90
        0
176
     1
290
     0
176
     1
 90
        5
176
     1
 40
0.0
176
     1
 90
        0
176
     1
290
     0
176
     1
290
     1
176
     1
290
     1
176
     1
290
     0
176
     1
290
     0
176
     1
290
     0
176
     1
290
     0
176
     1
290
     0
176
     1
290
     0
176
     1
 90
       50
176
     1
 40
0.0
176
     1
 40
1.0
176
     1
 90
        0
176
     1
 62
    18
420
        0
176
     1
 90
       50
176
     1
 90
        3
176
     1
 62
     5
420
      255
176
     1
290
     0
176
     1
 90
       50
176
     1
 90
       50
176
     1
 90
       50
176
     1
290
     0
176
     1
 90
       50
176
     1
 62
   256
176
     0
 40
1.0
176
     0
 90
        2
176
     1
  1
strokes_ogs.tif
176
     1
290
     0
176
     1
 40
1.0
176
     1
 40
1.0
176
     1
  0
VISUALSTYLE
  5
3D
102
{ACAD_REACTORS
330
29
102
}
330
29
100
AcDbVisualStyle
  2
Shaded with edges
 70
    26
177
     3
291
     0
 70
    58
 90
        2
176
     1
 90
        2
176
     1
 90
        1
176
     1
 90
        2
176
     1
 40
0.6
176
     1
 40
30.0
176
     1
 62
     7
420
 16777215
176
     1
 90
        1
176
     1
 90
       10
176
     1
 62
     7
176
     1
 62
   257
176
     1
 90
        2
176
     1
 90
        1
176
     1
 40
1.0
176
     1
 90
        8
176
     1
 62
   257
176
     1
 40
1.0
176
     1
 90
        1
176
     1
 90
        6
176
     1
 90
        2
176
     1
 62
     7
176
     1
 90
        3
176
     1
 90
        0
176
     1
 90
        0
176
     1
290
     0
176
     1
 90
        5
176
     1
 40
0.0
176
     1
 90
        0
176
     1
290
     0
176
     1
290
     1
176
     1
290
     1
176
     1
290
     0
176
     1
290
     0
176
     1
290
     0
176
     1
290
     0
176
     1
290
     0
176
     1
290
     0
176
     1
 90
       50
176
     1
 40
0.0
176
     1
 40
1.0
176
     1
 90
        0
176
     1
 62
    18
420
        0
176
     1
 90
       50
176
     1
 90
        3
176
     1
 62
     5
420
      255
176
     1
290
     0
176
     1
 90
       50
176
     1
 90
       50
176
     1
 90
       50
176
     1
290
     0
176
     1
 90
       50
176
     1
 62
   256
176
     0
 40
1.0
176
     0
 90
        2
176
     1
  1
strokes_ogs.tif
176
     1
290
     0
176
     1
 40
1.0
176
     1
 40
1.0
176
     1
  0
VISUALSTYLE
  5
3A
102
{ACAD_REACTORS
330
29
102
}
330
29
100
AcDbVisualStyle
  2
Shades of Gray
 70
    23
177
     3
291
     0
 70
    58
 90
        2
176
     1
 90
        2
176
     1
 90
        3
176
     1
 90
        0
176
     1
 40
0.6
176
     1
 40
30.0
176
     1
 62
     7
420
 16777215
176
     1
 90
        2
176
     1
 90
        2
176
     1
 62
     7
176
     1
 62
     7
176
     1
 90
        1
176
     1
 90
        1
176
     1
 40
40.0
176
     1
 90
        8
176
     1
 62
     7
176
     1
 40
1.0
176
     1
 90
        1
176
     1
 90
        6
176
     1
 90
        2
176
     1
 62
     7
176
     1
 90
        3
176
     1
 90
        0
176
     1
 90
        0
176
     1
290
     0
176
     1
 90
        1
176
     1
 40
0.0
176
     1
 90
        0
176
     1
290
     0
176
     1
290
     1
176
     1
290
     1
176
     1
290
     0
176
     1
290
     0
176
     1
290
     0
176
     1
290
     0
176
     1
290
     0
176
     1
290
     0
176
     1
 90
       50
176
     1
 40
0.0
176
     1
 40
1.0
176
     1
 90
        0
176
     1
 62
    18
420
        0
176
     1
 90
       50
176
     1
 90
        3
176
     1
 62
     5
420
      255
176
     1
290
     0
176
     1
 90
       50
176
     1
 90
       50
176
     1
 90
       50
176
     1
290
     0
176
     1
 90
       50
176
     1
 62
   256
176
     0
 40
1.0
176
     0
 90
        2
176
     1
  1
strokes_ogs.tif
176
     1
290
     0
176
     1
 40
1.0
176
     1
 40
1.0
176
     1
  0
VISUALSTYLE
  5
3B
102
{ACAD_REACTORS
330
29
102
}
330
29
100
AcDbVisualStyle
  2
Sketchy
 70
    24
177
     3
291
     0
 70
    58
 90
        1
176
     1
 90
        2
176
     1
 90
        2
176
     1
 90
        0
176
     1
 40
0.6
176
     1
 40
30.0
176
     1
 62
     7
420
 16777215
176
     1
 90
        2
176
     1
 90
        2
176
     1
 62
     7
176
     1
 62
     7
176
     1
 90
        1
176
     1
 90
        1
176
     1
 40
40.0
176
     1
 90
       11
176
     1
 62
     7
176
     1
 40
1.0
176
     1
 90
        1
176
     1
 90
        6
176
     1
 90
        2
176
     1
 62
     7
176
     1
 90
        6
176
     1
 90
        0
176
     1
 90
        0
176
     1
290
     0
176
     1
 90
        1
176
     1
 40
0.0
176
     1
 90
        0
176
     1
290
     0
176
     1
290
     1
176
     1
290
     1
176
     1
290
     0
176
     1
290
     0
176
     1
290
     0
176
     1
290
     0
176
     1
290
     0
176
     1
290
     0
176
     1
 90
       50
176
     1
 40
0.0
176
     1
 40
1.0
176
     1
 90
        0
176
     1
 62
    18
420
        0
176
     1
 90
       50
176
     1
 90
        3
176
     1
 62
     5
420
      255
176
     1
290
     0
176
     1
 90
       50
176
     1
 90
       50
176
     1
 90
       50
176
     1
290
     0
176
     1
 90
       50
176
     1
 62
   256
176
     0
 40
1.0
176
     0
 90
        2
176
     1
  1
strokes_ogs.tif
176
     1
290
     0
176
     1
 40
1.0
176
     1
 40
1.0
176
     1
  0
VISUALSTYLE
  5
36
102
{ACAD_REACTORS
330
29
102
}
330
29
100
AcDbVisualStyle
  2
Thicken
 70
    13
177
     3
291
     1
 70
    58
 90
        2
176
     1
 90
        2
176
     1
 90
        0
176
     1
 90
        0
176
     1
 40
0.6
176
     1
 40
30.0
176
     1
 62
     7
420
 16777215
176
     1
 90
        1
176
     1
 90
        4
176
     1
 62
     7
176
     1
 62
   257
176
     1
 90
        1
176
     1
 90
        1
176
     1
 40
1.0
176
     1
 90
       12
176
     1
 62
     7
176
     1
 40
1.0
176
     1
 90
        1
176
     1
 90
        6
176
     1
 90
        2
176
     1
 62
     7
176
     1
 90
        5
176
     1
 90
        0
176
     1
 90
        0
176
     1
290
     0
176
     1
 90
        1
176
     1
 40
0.0
176
     1
 90
        0
176
     1
290
     0
176
     1
290
     1
176
     1
290
     1
176
     1
290
     0
176
     1
290
     0
176
     1
290
     0
176
     1
290
     0
176
     1
290
     0
176
     1
290
     0
176
     1
 90
       50
176
     1
 40
0.0
176
     1
 40
1.0
176
     1
 90
        0
176
     1
 62
    18
420
        0
176
     1
 90
       50
176
     1
 90
        3
176
     1
 62
     5
420
      255
176
     1
290
     0
176
     1
 90
       50
176
     1
 90
       50
176
     1
 90
       50
176
     1
290
     0
176
     1
 90
       50
176
     1
 62
   256
176
     0
 40
1.0
176
     0
 90
        2
176
     1
  1
strokes_ogs.tif
176
     1
290
     0
176
     1
 40
1.0
176
     1
 40
1.0
176
     1
  0
VISUALSTYLE
  5
30
102
{ACAD_REACTORS
330
29
102
}
330
29
100
AcDbVisualStyle
  2
Wireframe
 70
     5
177
     3
291
     0
 70
    58
 90
        0
176
     1
 90
        2
176
     1
 90
        0
176
     1
 90
        0
176
     1
 40
0.6
176
     1
 40
30.0
176
     1
 62
     7
420
 16777215
176
     1
 90
        1
176
     1
 90
        4
176
     1
 62
     7
176
     1
 62
   257
176
     1
 90
        1
176
     1
 90
        1
176
     1
 40
1.0
176
     1
 90
        0
176
     1
 62
   257
176
     1
 40
1.0
176
     1
 90
        1
176
     1
 90
        6
176
     1
 90
        2
176
     1
 62
     7
176
     1
 90
        3
176
     1
 90
        0
176
     1
 90
        0
176
     1
290
     0
176
     1
 90
        1
176
     1
 40
0.0
176
     1
 90
        0
176
     1
290
     0
176
     1
290
     1
176
     1
290
     1
176
     1
290
     0
176
     1
290
     0
176
     1
290
     0
176
     1
290
     0
176
     1
290
     0
176
     1
290
     0
176
     1
 90
       50
176
     1
 40
0.0
176
     1
 40
1.0
176
     1
 90
        0
176
     1
 62
    18
420
        0
176
     1
 90
       50
176
     1
 90
        3
176
     1
 62
     5
420
      255
176
     1
290
     0
176
     1
 90
       50
176
     1
 90
       50
176
     1
 90
       50
176
     1
290
     0
176
     1
 90
       50
176
     1
 62
   256
176
     0
 40
1.0
176
     0
 90
        2
176
     1
  1
strokes_ogs.tif
176
     1
290
     0
176
     1
 40
1.0
176
     1
 40
1.0
176
     1
  0
VISUALSTYLE
  5
3C
102
{ACAD_REACTORS
330
29
102
}
330
29
100
AcDbVisualStyle
  2
X-Ray
 70
    25
177
     3
291
     0
 70
    58
 90
        2
176
     1
 90
        2
176
     1
 90
        1
176
     1
 90
        1
176
     1
 40
0.5
176
     1
 40
30.0
176
     1
 62
     7
420
 16777215
176
     1
 90
        1
176
     1
 90
        0
176
     1
 62
     7
176
     1
 62
   257
176
     1
 90
        1
176
     1
 90
        1
176
     1
 40
1.0
176
     1
 90
        8
176
     1
 62
     7
176
     1
 40
1.0
176
     1
 90
        1
176
     1
 90
        6
176
     1
 90
        2
176
     1
 62
     7
176
     1
 90
        3
176
     1
 90
        0
176
     1
 90
        0
176
     1
290
     0
176
     1
 90
       13
176
     1
 40
0.0
176
     1
 90
        0
176
     1
290
     0
176
     1
290
     1
176
     1
290
     1
176
     1
290
     0
176
     1
290
     0
176
     1
290
     0
176
     1
290
     0
176
     1
290
     0
176
     1
290
     0
176
     1
 90
       50
176
     1
 40
0.0
176
     1
 40
1.0
176
     1
 90
        0
176
     1
 62
    18
420
        0
176
     1
 90
       50
176
     1
 90
        3
176
     1
 62
     5
420
      255
176
     1
290
     0
176
     1
 90
       50
176
     1
 90
       50
176
     1
 90
       50
176
     1
290
     0
176
     1
 90
       50
176
     1
 62
   256
176
     0
 40
1.0
176
     0
 90
        2
176
     1
  1
strokes_ogs.tif
176
     1
290
     0
176
     1
 40
1.0
176
     1
 40
1.0
176
     1
  0
DICTIONARYVAR
  5
E2
102
{ACAD_REACTORS
330
DD
102
}
330
DD
100
DictionaryVariables
280
     0
  1
1:1
  0
DICTIONARYVAR
  5
DF
102
{ACAD_REACTORS
330
DD
102
}
330
DD
100
DictionaryVariables
280
     0
  1
STANDARD
  0
DICTIONARYVAR
  5
DE
102
{ACAD_REACTORS
330
DD
102
}
330
DD
100
DictionaryVariables
280
     0
  1
STANDARD
  0
DICTIONARYVAR
  5
E0
102
{ACAD_REACTORS
330
DD
102
}
330
DD
100
DictionaryVariables
280
     0
  1
Imperial24
  0
DICTIONARYVAR
  5
E1
102
{ACAD_REACTORS
330
DD
102
}
330
DD
100
DictionaryVariables
280
     0
  1
Imperial24
  0
XRECORD
  5
D5
102
{ACAD_REACTORS
330
D3
102
}
330
D3
100
AcDbXrecord
280
     1
  1
BUILDING_ID
  1
Diverter_Valve_Trim-American_Standard-Estate-T722
  1
FLOOR_ID
  1
1892
  0
XRECORD
  5
D4
102
{ACAD_REACTORS
330
D3
102
}
330
D3
100
AcDbXrecord
280
     1
  1
-2001160
  1
Plumbing Fixtures
  0
DICTIONARY
  5
DA
330
6B
100
AcDbDictionary
280
     1
281
     1
  3
ACAD_XREC_ROUNDTRIP
360
176
  0
DICTIONARY
  5
1A
330
19
100
AcDbDictionary
280
     1
281
     1
  3
BUMPTILE
360
1C
  3
DIFFUSETILE
360
1B
  3
OPACITYTILE
360
1F
  3
REFLECTIONTILE
360
1E
  3
REFRACTIONTILE
360
20
  3
SPECULARTILE
360
1D
  0
DICTIONARY
  5
12
330
11
100
AcDbDictionary
280
     1
281
     1
  3
BUMPTILE
360
14
  3
DIFFUSETILE
360
13
  3
OPACITYTILE
360
17
  3
REFLECTIONTILE
360
16
  3
REFRACTIONTILE
360
18
  3
SPECULARTILE
360
15
  0
DICTIONARY
  5
22
330
21
100
AcDbDictionary
280
     1
281
     1
  3
BUMPTILE
360
24
  3
DIFFUSETILE
360
23
  3
OPACITYTILE
360
27
  3
REFLECTIONTILE
360
26
  3
REFRACTIONTILE
360
28
  3
SPECULARTILE
360
25
  0
DICTIONARY
  5
D8
330
69
100
AcDbDictionary
280
     1
281
     1
  3
ACAD_XREC_ROUNDTRIP
360
175
  0
DICTIONARY
  5
173
330
65
100
AcDbDictionary
280
     1
281
     1
  3
ACAD_ROUNDTRIP_2008_TABLESTYLE_CELLSTYLEMAP
360
174
  0
XRECORD
  5
176
102
{ACAD_REACTORS
330
DA
102
}
330
DA
100
AcDbXrecord
280
     1
102
DISPLAYNAME
  1
Imperial24
102
FLAGS
 90
        0
  0
XRECORD
  5
1C
102
{ACAD_REACTORS
330
1A
102
}
330
1A
100
AcDbXrecord
280
     1
270
     1
271
     1
  0
XRECORD
  5
1B
102
{ACAD_REACTORS
330
1A
102
}
330
1A
100
AcDbXrecord
280
     1
270
     1
271
     1
  0
XRECORD
  5
1F
102
{ACAD_REACTORS
330
1A
102
}
330
1A
100
AcDbXrecord
280
     1
270
     1
271
     1
  0
XRECORD
  5
1E
102
{ACAD_REACTORS
330
1A
102
}
330
1A
100
AcDbXrecord
280
     1
270
     1
271
     1
  0
XRECORD
  5
20
102
{ACAD_REACTORS
330
1A
102
}
330
1A
100
AcDbXrecord
280
     1
270
     1
271
     1
  0
XRECORD
  5
1D
102
{ACAD_REACTORS
330
1A
102
}
330
1A
100
AcDbXrecord
280
     1
270
     1
271
     1
  0
XRECORD
  5
14
102
{ACAD_REACTORS
330
12
102
}
330
12
100
AcDbXrecord
280
     1
270
     1
271
     1
  0
XRECORD
  5
13
102
{ACAD_REACTORS
330
12
102
}
330
12
100
AcDbXrecord
280
     1
270
     1
271
     1
  0
XRECORD
  5
17
102
{ACAD_REACTORS
330
12
102
}
330
12
100
AcDbXrecord
280
     1
270
     1
271
     1
  0
XRECORD
  5
16
102
{ACAD_REACTORS
330
12
102
}
330
12
100
AcDbXrecord
280
     1
270
     1
271
     1
  0
XRECORD
  5
18
102
{ACAD_REACTORS
330
12
102
}
330
12
100
AcDbXrecord
280
     1
270
     1
271
     1
  0
XRECORD
  5
15
102
{ACAD_REACTORS
330
12
102
}
330
12
100
AcDbXrecord
280
     1
270
     1
271
     1
  0
XRECORD
  5
24
102
{ACAD_REACTORS
330
22
102
}
330
22
100
AcDbXrecord
280
     1
270
     1
271
     1
  0
XRECORD
  5
23
102
{ACAD_REACTORS
330
22
102
}
330
22
100
AcDbXrecord
280
     1
270
     1
271
     1
  0
XRECORD
  5
27
102
{ACAD_REACTORS
330
22
102
}
330
22
100
AcDbXrecord
280
     1
270
     1
271
     1
  0
XRECORD
  5
26
102
{ACAD_REACTORS
330
22
102
}
330
22
100
AcDbXrecord
280
     1
270
     1
271
     1
  0
XRECORD
  5
28
102
{ACAD_REACTORS
330
22
102
}
330
22
100
AcDbXrecord
280
     1
270
     1
271
     1
  0
XRECORD
  5
25
102
{ACAD_REACTORS
330
22
102
}
330
22
100
AcDbXrecord
280
     1
270
     1
271
     1
  0
XRECORD
  5
175
102
{ACAD_REACTORS
330
D8
102
}
330
D8
100
AcDbXrecord
280
     1
102
DISPLAYNAME
  1
Imperial24
102
FLAGS
 90
        0
  0
CELLSTYLEMAP
  5
174
102
{ACAD_REACTORS
330
173
102
}
330
173
100
AcDbCellStyleMap
 90
        3
300
CELLSTYLE
  1
TABLEFORMAT_BEGIN
 90
        5
170
     1
 91
        0
 92
    32768
 62
   257
 93
        1
300
CONTENTFORMAT
  1
CONTENTFORMAT_BEGIN
 90
        0
 91
        0
 92
      512
 93
        0
300

 40
0.0
140
1.0
 94
        5
 62
     0
340
55
144
0.25
309
CONTENTFORMAT_END
171
     0
 94
        0
309
TABLEFORMAT_END
  1
CELLSTYLE_BEGIN
 90
        1
 91
        1
300
_TITLE
309
CELLSTYLE_END
300
CELLSTYLE
  1
TABLEFORMAT_BEGIN
 90
        5
170
     1
 91
        0
 92
        0
 62
   257
 93
        1
300
CONTENTFORMAT
  1
CONTENTFORMAT_BEGIN
 90
        0
 91
        0
 92
      512
 93
        0
300

 40
0.0
140
1.0
 94
        5
 62
     0
340
55
144
0.18
309
CONTENTFORMAT_END
171
     0
 94
        0
309
TABLEFORMAT_END
  1
CELLSTYLE_BEGIN
 90
        2
 91
        1
300
_HEADER
309
CELLSTYLE_END
300
CELLSTYLE
  1
TABLEFORMAT_BEGIN
 90
        5
170
     1
 91
        0
 92
        0
 62
   257
 93
        1
300
CONTENTFORMAT
  1
CONTENTFORMAT_BEGIN
 90
        0
 91
        0
 92
      512
 93
        0
300

 40
0.0
140
1.0
 94
        2
 62
     0
340
55
144
0.18
309
CONTENTFORMAT_END
171
     0
 94
        0
309
TABLEFORMAT_END
  1
CELLSTYLE_BEGIN
 90
        3
 91
        2
300
_DATA
309
CELLSTYLE_END
  0
ENDSEC
  0
SECTION
  2
ACDSDATA
 70
     2
 71
     6
  0
ACDSSCHEMA
 90
        0
  1
AcDb_Thumbnail_Schema
  2
AcDbDs::ID
280
    10
 91
        8
  2
Thumbnail_Data
280
    15
 91
        0
101
ACDSRECORD
 95
        0
 90
        1
  2
AcDbDs::TreatedAsObjectData
280
     1
291
     1
101
ACDSRECORD
 95
        0
 90
        2
  2
AcDbDs::Legacy
280
     1
291
     1
101
ACDSRECORD
  1
AcDbDs::ID
 90
        3
  2
AcDs:Indexable
280
     1
291
     1
101
ACDSRECORD
  1
AcDbDs::ID
 90
        4
  2
AcDbDs::HandleAttribute
280
     7
282
     1
  0
ACDSSCHEMA
 90
        1
  1
AcDbDs::TreatedAsObjectDataSchema
  2
AcDbDs::TreatedAsObjectData
280
     1
 91
        0
  0
ACDSSCHEMA
 90
        2
  1
AcDbDs::LegacySchema
  2
AcDbDs::Legacy
280
     1
 91
        0
  0
ACDSSCHEMA
 90
        3
  1
AcDbDs::IndexedPropertySchema
  2
AcDs:Indexable
280
     1
 91
        0
  0
ACDSSCHEMA
 90
        4
  1
AcDbDs::HandleAttributeSchema
  2
AcDbDs::HandleAttribute
280
     7
 91
        1
284
     1
  0
ACDSRECORD
 90
        0
  2
AcDbDs::ID
280
    10
320
73
  2
Thumbnail_Data
280
    15
 94
     1313
310
89504E470D0A1A0A0000000D494844520000010000000063080300000043BB2E1400000300504C5445212830000000C8C8C80000000000000000000000000000000000000000000000000000330000660000990000CC0000FF0033000033330033660033990033CC0033FF0066000066330066660066990066CC0066FF0099
310
000099330099660099990099CC0099FF00CC0000CC3300CC6600CC9900CCCC00CCFF00FF0000FF3300FF6600FF9900FFCC00FFFF3300003300333300663300993300CC3300FF3333003333333333663333993333CC3333FF3366003366333366663366993366CC3366FF3399003399333399663399993399CC3399FF33CC00
310
33CC3333CC6633CC9933CCCC33CCFF33FF0033FF3333FF6633FF9933FFCC33FFFF6600006600336600666600996600CC6600FF6633006633336633666633996633CC6633FF6666006666336666666666996666CC6666FF6699006699336699666699996699CC6699FF66CC0066CC3366CC6666CC9966CCCC66CCFF66FF0066
310
FF3366FF6666FF9966FFCC66FFFF9900009900339900669900999900CC9900FF9933009933339933669933999933CC9933FF9966009966339966669966999966CC9966FF9999009999339999669999999999CC9999FF99CC0099CC3399CC6699CC9999CCCC99CCFF99FF0099FF3399FF6699FF9999FFCC99FFFFCC0000CC00
310
33CC0066CC0099CC00CCCC00FFCC3300CC3333CC3366CC3399CC33CCCC33FFCC6600CC6633CC6666CC6699CC66CCCC66FFCC9900CC9933CC9966CC9999CC99CCCC99FFCCCC00CCCC33CCCC66CCCC99CCCCCCCCCCFFCCFF00CCFF33CCFF66CCFF99CCFFCCCCFFFFFF0000FF0033FF0066FF0099FF00CCFF00FFFF3300FF3333
310
FF3366FF3399FF33CCFF33FFFF6600FF6633FF6666FF6699FF66CCFF66FFFF9900FF9933FF9966FF9999FF99CCFF99FFFFCC00FFCC33FFCC66FFCC99FFCCCCFFCCFFFFFF00FFFF33FFFF66FFFF99FFFFCCFFFFFF0000000D0D0D1A1A1A2828283535354343435050505D5D5D6B6B6B787878868686939393A1A1A1AEAEAEBB
310
BBBBC9C9C9D6D6D6E4E4E4F1F1F1FFFFFF000000000000000000000000000000000000000000000000000000000000B21171F6000001DC4944415478DAEDDCDB6EC2301004D0FDFFFF9DF70A28C4B7384E1C21C633FBD00AB5B2D8C3AE133B2411BF16E8472C1F98F8EB1A00BB9FB34805F49A203402C2F5DF4D54267F03EC
310
A4AA0E20947F3B590384B8803A8056FE068078FE06A812368001B401E4F2374091B2010C600003280308E65F5C1E08C9C05B22421B200C6000698080010C60000308E7AF0BE016905E08381C0E87C3E170381C0EB605CC0F0FF795453CEECBFD993DD97AF02E803C6B2202DC53B5AF3192FD001A8207C0BC01D21A78770211
310
C0ECEC5525FC78412280642BEFEA5B6E654B2380EC7D5E3240EC7C5B9C10E033919D9CFF30CA4200901FD42F36C03F0C4313742A1593237034C121C0514B640364FFCB0FB0A5D3114807284E002804065B6008A0D4D203A87F4B0054D7440DE016580AE0E038584D825867121C5ADDE787C1E24400FC1580A3934254CD4F55
310
00F300F524C006D02AD3A4F88700D00000E76AB09CF28E01924C51FCA40368CCF62300A853E7D912DA00DAC7BA01802DD7E4B367DB12DB7D1ED8D0D600CA3A20DB14ED9CE70CDE02905D11E2DC169F03A85A80EAC248DC00D068011600DC04B00D45767174E88990E3FBA3B1D877A54F01AC78D3D41580A5040C60000318C0
310
00C200E7523280010C6000032C0670EA6ED86F3C44E70FB8C56F26B2CD5EC70000000049454E44AE426082
  0
ENDSEC
  0
EOF
